"AS WICKED" - Rancid
====================
From the Epitaph recording "...And Out Come The Wolves"
Words and music by Rancid
Transcribed by Mat Barnes ("[email protected]")
Note that the single note line in the intro below is actually played by Matt
Freeman's bass, but is transcribed here for gtr.1
INTRO:
(Gtr.1) D5
e|--------|----------------|----------------|----------------|----------------|
B|--------|----------------|----------------|----------------|----------------|
G|--------|7\--------------|----------------|----------------|----------------|
D|--------|7\--------------|----------------|----------------|----------------|
A|--2-3-4-|5\--------------|----------------|----------------|----------2-3-4-|
E|--------|----------------|----------------|----------------|----------------|
| |
|(Gtr.2) D5 G5 D5 G5 D5 G5 A5 G5 |
e|--------|----------------|----------------|----------------|----------------|
B|--------|----------------|----------------|----------------|----------------|
G|--------|7---7-----------|7---7-----------|7---7-----------|----------------|
D|--------|7---7-0-5-5-5-0-|7---7-0-5-5-5-0-|7---7-0-5-5-5-0-|7---7-0-5-5-5-0-|
A|--------|5---5-0-5-5-5-0-|5---5-0-5-5-5-0-|5---5-0-5-5-5-0-|7---7-0-5-5-5-0-|
E|--------|--------3-3-3---|--------3-3-3---|--------3-3-3---|5---5---3-3-3---|
D5 D5 D5 A5 G5
one two three four
e|----------------|----------------|----------------|----------------|
B|----------------|----------------|----------------|----------------|
G|7\--------------|7\--------------|7\--------------|----------------|
D|7\--------------|7\--------------|7\--------------|7-------5-------|
A|5\--------------|5\--------------|5\--------------|7-------5-------|
E|----------------|----------------|----------------|5-------3-------|
| |
|D5 G5 D5 G5 D5 G5 A5 G5 |
e|----------------|----------------|----------------|----------------|
B|----------------|----------------|----------------|----------------|
G|7---7-----------|7---7-----------|7---7-----------|----------------|
D|7---7-0-5-5-5-0-|7---7-0-5-5-5-0-|7---7-0-5-5-5-0-|7---7-0-5-5-5-0-|
A|5---5-0-5-5-5-0-|5---5-0-5-5-5-0-|5---5-0-5-5-5-0-|7---7-0-5-5-5-0-|
E|--------3-3-3---|--------3-3-3---|--------3-3-3---|5---5---3-3-3---|
Rhy.Fig.1(Both gtrs)
D5 G5 D5 G5 D5 G5 A5 G5
e|----------------|----------------|----------------|----------------|
B|----------------|----------------|----------------|----------------|
G|7---7-----------|7---7-----------|7---7-----------|----------------|
D|7---7-0-5-5-5-0-|7---7-0-5-5-5-0-|7---7-0-5-5-5-0-|7---7-0-5-5-5-0-|
A|5---5-0-5-5-5-0-|5---5-0-5-5-5-0-|5---5-0-5-5-5-0-|7---7-0-5-5-5-0-|
E|--------3-3-3---|--------3-3-3---|--------3-3-3---|5---5---3-3-3---|
end Rhy.Fig.1
D5 G5 D5 G5 D5 G5 A5 G5
e|----------------|----------------|----------------|----------------|
B|----------------|----------------|----------------|----------------|
G|7---7-----------|7---7-----------|7---7-----------|----------------|
D|7---7-0-5-5-5-0-|7---7-0-5-5-5-0-|7---7-0-5-5-5-0-|7---7-0-5-5-5-0-|
A|5---5-0-5-5-5-0-|5---5-0-5-5-5-0-|5---5-0-5-5-5-0-|7---7-0-5-5-5-0-|
E|--------3-3-3---|--------3-3-3---|--------3-3-3---|5---5---3-3-3---|
VERSE:
Rhy.Fig.2(Gtr.2)
I saw an old man on the street He was in a dumpster lookin for somethin to eat
e|----------------|----------------|----------------|----------------|
B|----------------|----------------|----------------|----------------|
G|7-7-7-7-7-7-7-7-|5-5-5-5-5-5-5-5-|4-4-4-4-4-4-4-4-|2-2-2-2-2-2-2-2-|
D|----------------|----------------|----------------|----------------|
A|----------------|----------------|----------------|----------------|
E|----------------|----------------|----------------|----------------|
end Rhy.Fig.2
He moved so slow like a dyin' dream Like a machinist caught in a machine
e|----------------|----------------|----------------|----------------|
B|----------------|----------------|----------------|----------------|
G|7-7-7-7-7-7-7-7-|5-5-5-5-5-5-5-5-|4-4-4-4-4-4-4-4-|2-2-2-2-2-2-2-2-|
D|----------------|----------------|----------------|----------------|
A|----------------|----------------|----------------|----------------|
E|----------------|----------------|----------------|----------------|
Rhy.Fig.2A(Gtr.1)(w/Rhy.Fig.2)
D5 C5 B5 A5
I saw this lady she was cryin She said it's hard when someone you love is dyin'
e|----------------|----------------|----------------|----------------|
B|----------------|----------------|----------------|----------------|
G|7---------------|5---------------|4---------------|2---------------|
D|7---------------|5---------------|4---------------|2---------------|
A|5---------------|3---------------|2---------------|0---------------|
E|----------------|----------------|----------------|----------------|
end Rhy.Fig.2A
D5 C5 B5 A5
I saw this kid whos about 5 years old he was in the park all alone he was cold
e|----------------|----------------|----------------|----------------|
B|----------------|----------------|----------------|----------------|
G|7---------------|5---------------|4---------------|2---------------|
D|7---------------|5---------------|4---------------|2---------------|
A|5---------------|3---------------|2---------------|0---------------|
E|----------------|----------------|----------------|----------------|
PRE-CHORUS:
Rhy.Fig.3(Gtr.2)
D5 G5 B5 A5
There___ is_ some___thing__ com____ing__ down________.
e|----------------|----------------|----------------|----------------|
B|----------------|----------------|----------------|----------------|
G|7---------------|----------------|4---------------|----------------|
D|7---7-7-7-7-7-7-|5---------------|4---4-4-4-4-4-4-|7---------------|
A|5---5-5-5-5-5-5-|5---5-5-5-5-5-5-|2---2-2-2-2-2-2-|7---7-7-7-7-7-7-|
E|----------------|3---3-3-3-3-3-3-|----------------|5---5-5-5-5-5-5-|
CHORUS:
(w/Rhy.Fig.1)(Both gtrs)
D5 G5 D5 G5 D5 G5 A5 G5
As wic-ked as it may seem_ As wic-ked as a-ny-thing could be
D5 G5 D5 G5 D5 G5 A5 G5
As wic-ked as it may seem_ As wic-ked as a-ny-thing could be
BRIDGE:
Rhy.Fig.4(Both gtrs)
D5 G5 A5 G5 D5
Na na na na (etc.)
e|----------------|----------------|----------------|----------------|
B|----------------|----------------|----------------|----------------|
G|7-7-7-7-7-7-7-7-|7-7-7-7---x-----|----------------|--------------7-|
D|7-7-7-7-7-7-7-7-|7-7-7-7---x-5-7-|7-7---7-7-7-7-7-|7-7-7-7---x-5-7-|
A|5-5-5-5-5-5-5-5-|5-5-5-5---x-5-7-|7-7---7-7-7-7-7-|7-7-7-7---x-5-5-|
E|----------------|------------3-5-|5-5---5-5-5-5-5-|5-5-5-5---x-3---|
end Rhy.Fig.4
G5 A5 G5 D5
e|----------------|----------------|----------------|----------------|
B|----------------|----------------|----------------|----------------|
G|7-7-7-7-7-7-7-7-|7-7-7-7---x-----|----------------|--------------7-|
D|7-7-7-7-7-7-7-7-|7-7-7-7---x-5-7-|7-7---7-7-7-7-7-|7-7-7-7---x-5-7-|
A|5-5-5-5-5-5-5-5-|5-5-5-5---x-5-7-|7-7---7-7-7-7-7-|7-7-7-7---x-5-5-|
E|----------------|------------3-5-|5-5---5-5-5-5-5-|5-5-5-5---x-3---|
Additional lyrics:
2.I know this girl she's barely alive
She's all haggard, she's only twenty-five
She said she's never had a friend before
I said: "Hey girl, I'll be your friend, but who's keeping score?"
3.I saw this other little girl on the phone
Her mother comforts her from far from home
The little girl was very hesitant
Her best friend lies dead on the pavement
4.I always end up back on the hill
Lookin' down at the landfill
I always go there when I can
My friend Marty said: "Tim, you're a lucky man"

--Mat
"I don't like alarms, Mister White."
Send any corrections, advice, abuse, or sexual favours to:
[email protected]




Ваше мнение



Капча