Artist: Rancid
Song: As Wicked
Album: And Out Come the Wolves
Standard Tuning

Intro 1 x1
G|--------------------------------|
D|--------------------------------|
A|-0345--------0345---5---5-------|
E|----------------------------5--3|

Intro 2 x2
G|-------------------------------|
D|-------------------------------|
A|03455------55------55----------|
E|-----333203--333203--333203553-|

Verse Part 1 x1
G|-----------------------|
D|--------------457754---|
A|-5-----0345--7------74-|
E|----3------------------|

Verse Part 2 x3
G|--------------------------|
D|-----------------457754---|
A|-5--320---0345--7------74-|
E|-------3------------------|

Pre-Chorus x1
G|---6-9-11-9-9-16-16-14-14-12-12-11-9-|
D|-7-----------------------------------|
A|-------------------------------------|
E|-------------------------------------|

Chorus x2
G|--------------------------------|
D|--------------------------------|
A|-03455------55------55----------|
E|------333203--333203--333203553-|

Verse Part 1
Verse Part 2
Pre-Chorus
Chorus

Bridge x1
G|---------------------------------------------------------|
D|---------------------------------------------------------|
A|-5555555555------------------55555555555-----------------|
E|-----------0-3-55555555550-3------------0-3-5555555555-3-|

Guitar Solo x2
G|--------------------------------|
D|--------------------------------|
A|-03455------55------55----------|
E|------333203--333203--333203553-|

Verse Part 1
Verse Part 2
Pre-Chorus
Chorus

Your gonna hafta figure out how many times you'll play each part.
But other than that this is one of the best and easiest Rancid song.




Ваше мнение



Капча