-----------------------------------------------------------------------------
Rancid - Antennas
-----------------------------------------------------------------------------

Tabbed by: Joel Reid / Adrian White ([email protected])

Tuning: EBGDAE
Chords: G E C D * Open and Power used *

=Listen to the song to hear chords differ / And timing=

Verse
e|-------------------------------------------------------|
B|-------------------------------------------------------|
G|-------------------------------------------------------|
D|---------------------------------7-7-7-7---------------|
A|--5-5-5-5-5-5-5-5------2-2-2-2---5-5-5-5---5-5-5-5-----|
E|--3-3-3-3-3-3-3-3------0-0-0-0-------------3-3-3-3-----|
G E D G

Verse Fill / Outro
e|-------------------------------------------------------|
B|-------------------------------------------------------|
G|-------------------------------------------------------|
D|--5-5-5---------7-7-7-7-7-7----------------------------|
A|--3-3-3--5-5-5--5-5-5-5-5-5----------------------------|
E|---------3-3-3-----------------------------------------|
C G D

Chorus
e|--3--0--2--3---------------------------------------------|
B|--0--0--3--0---------------------------------------------|
G|--0--1--2--0---------------------------------------------|
D|--0--2--0--0---------------------------------------------|
A|--2--2--0--2---------------------------------------------|
E|--3--0-----3---------------------------------------------|
G E D G etc etc


Outro
e|-------------------------------------------------------|
B|-------------------------------------------------------|
G|-------------------------------------------------------|
D|--5-5-5---------7-7-7-7-7-7----------------------------|
A|--3-3-3--5-5-5--5-5-5-5-5-5----------------------------|
E|---------3-3-3-----------------------------------------|
C G D




Ваше мнение



Капча