Rancid
Adina
by poncho phil
Intro:
G:----------------
D:----------------
A:----------6-8-6-
E:8-8-8-8-8------- x4
Chorus:
G:---------------------
D:---------------------
A:10-10-10-10-10-9-8-7-
E:--------------------- x4
Verse:
G:------------------------------------------------------------------------
D:10-9-8-7-------------7-8-9-10-9-8-7-10-9-8-7----------------------------
A:---------10-9-8-9-10-------------------------10-9-8-7-8-7----7---7-8-10-
E:----------------------------------------------------------10---8-------- x2
Chorus x4
Verse variation:
G:------------------------------------------------------------------------
D:------------7-8-9-10-9-8-7----------10-9-8-7----------------------------
A:---7-8-9-10----------------10-9-8-7----------10-9-8-7-8-7----7---7-8-10-
E:10--------------------------------------------------------10---8-------- x1
then play it as normal x1
Chorus x4
Intro x4
Chorus x4
Verse variation x1 then as normal x1
Chorus x4
Intro x4
End
G:------
D:------
A:--6---
E:8---8- x1
bend the last B# a bit




Ваше мнение



Капча