Artist : Rammstein
Album : Mutter
Song : Zwitter
Tebed by : Dani E. Rьger
Intro and main riff
E|---------------------------------|
B|---------------------------------|
G|---------------------------------|
D|---------------------------------|
A|---------------------------------|
D|-0-0-0-0-0-5-3-0-0-0-0-0-2-3-3-0-|
a lot of times till the chorus there is only the bass and the drum,
Chorus
E|---------------------------------|-----------------------------------------|
B|---------------------------------|-----------------------------------------|
G|---------------------------------|-----------------------------------------|
D|-1-1-1-1-1-1-1-0-0-0-0-0-0-0-0---|-1-1-1-1-1-1-1-----------0-0-0-0-0-0-0-0-|
A|-1-1-1-1-1-1-1-0-0-0-0-0-0-0-0---|-1-1-1-1-1-1-1-1-3-5-6-5-0-0-0-0-0-0-0-0-|
D|-1-1-1-1-1-1-1-0-0-0-0-0-0-0-0---|-1-1-1-1-1-1-1-----------0-0-0-0-0-0-0-0-|
Eins fur dich, Eins fur mich.......
I am not so sure about this part, its maybe one octave higher
Play intro
Play chorus
E|---b-----------------------------|-------------------------------------------|
B|---------------------------------|-------------------------------------------|
G|---------------------------------|-------------------------------------------|
D|---------------------------------|-------------------------------------------|
A|-6-6-6-6-6-6-6-5-5-5-5-5-5-5-5---|--1-3-5-6-5--6-6-6-6-6-6-6-5-5-5-5-5-5-5-5-|
D|---------------------------------|-------------------------------------------|
out-tro
E|---------------------------------|
B|---------------------------------|
G|---------------------------------|
D|-0-0-0-0-0-5-3-0-0-0-0-0-2-3-3-0-|
A|-0-0-0-0-0-5-3-0-0-0-0-0-2-3-3-0-|
D|-0-0-0-0-0-5-3-0-0-0-0-0-2-3-3-0-|
End




Ваше мнение



Капча