Band: Raging Speedhorn
Song: SuperScud
Album: Raging Speedhorn
Tuning: low to high - c# g# c# f# a# d#
Transcribed by Mark Kerry
e-mail: [email protected]

key

b = bend
r = release bend
~ = vibrato
pm = palm mute

riff1 intro (guitar 1)
|----------------------------------------------------|
|----------------------------------------------------|
|----------------------------------------------------|
|----------------------------------------------------|
|-----4-b~~------4-b~~------4-b~~--------------------|
|--0----------0----------0----------0-0-2-0-0-2h3----|
pm - - - -

Riff2 Verse (guitar 1&2)
|----------------------------------------------------|
|----------------------------------------------------|
|----------------------------------------------------|
|-----6-b~~------6-b~~------6-b~~--------------------|
|--0--4-b~~---0--4-b~~---0--4-b~~---0-0-2-0-0-2h3----|
|--0----------0----------0----------0-0-2-0-0-2h3----|
pm - - - -

Riff3 chorus (guitar 1&2)
|----------------------------------------------------|
|----------------------------------------------------|
|----------------------------------------------------|
|----------------------------------------------------|
|--0-0-0-0-3--0-0-0-0-3--0-0-0-0-3--5-5-5-5-6-6-6-6--|
|--0-0-0-0-3--0-0-0-0-3--0-0-0-0-3--5-5-5-5-6-6-6-6--|


|----------------------------------------------------|
|----------------------------------------------------|
|----------------------------------------------------|
|----------------------------------------------------|
|------4br-------------------------------------------|
|--0-0------0-6-5-3-0-3h4----------------------------|

riff1x2
riff2x4
riff3x4
riff2x4
riff3x6
fill1x1
riff3x4
riff2x4
riff4x12
fill1x1




Ваше мнение



Капча