beggining guitar riff
E---------------------------------------------------------------------
B---------------------------------------------------------------------
G---------------------------------------------------------------------
D--2----7*------------------------------------------------------------
A--2------------------------------------------------------------------
E--0------------------------------------------------------------------
Let me see you stripped...
E---------------------------------------------------------------------
B---------------------------------------------------------------------
G--7--2--5------------------------------------------------------------
D--7--2--5--2---------------------------------------------------------
A--5--0--3--2---------------------------------------------------------
E-----------0---------------------------------------------------------
Guitar part 3:20
E---------------------------------------------------------------------
B---------------------------------------------------------------------
G--9--11---14-16----19---------19-------------------------------------
D-----------------------17--------17----------------------------------
A--7--9----12--14---17---------17-------------------------------------
E-----------------------15----------15--------------------------------
Play along with the song if you get lost...




Ваше мнение



Капча