rammstein - sonne (remix)
this song kicks ass, it is on a cd free with kerrang! check it ut if ya can
is nearely the same as the origional, just faster, and more djs!
Intro Palm Muted
e--------------------------------------------------------|
B--------------------------------------------------------|
G--------------------------------------------------------| You Do This
D--------------------------------------------------------| For a Half Hour
A--------------------------------------------------------|
D--0-0-6-0-0-0-6-0-0-0-6-0-0-0-6-0-0-0-6-0-0-0-6-0-0-0-6-|

Verse I
e----------------------------------------------------------------|
B----------------------------------------------------------------|
G----------------------------------------------------------------|
D-0--6-5-6-5-0----0--6-5-6-5----0--6-5-6-5-0----0--6-5-6-5-6-6-6-|
A-0--6-5-6-5-0----0--6-5-6-5----0--6-5-6-5-0----0--6-5-6-5-6-6-6-|
D-0--6-5-6-5-0----0--6-5-6-5----0--6-5-6-5-0----0--6-5-6-5-6-6-6-|

Verse 2
e-----------------------------------------|-------------|
B-----------------------------------------|--Last-Time--|
G-----------------------------------------|-------------|
D-pm-0-----0--6-5-6-5-0----0--6-5-6-5-0---|-pm-0--pm-2--|
A-pm-0-----0--6-5-6-5-0----0--6-5-6-5-0---|-pm-0--pm-2--|
D-pm-0-----0--6-5-6-5-0----0--6-5-6-5-0---|-pm-0--pm-2--|

Chorus
e-----------------------------------------------------------------------------------------|
B-----------------------------------------------------------------------------------------|
G----------12-12-12-12--11-11-11-11--9-9-9-9---------------------12-12-12-12--11-11-11-11-|
D-9-9-9-9--12-12-12-12--11-11-11-11--9-9-9-9---9-9-9-9--2-2-2-2--12-12-12-12--11-11-11-11-|
A-9-9-9-9--10-10-10-10---9--9--9--9--7-7-7-7---9-9-9-9--2-2-2-2--10-10-10-10---9--9--9--9-|
D-9-9-9-9--------------------------------------9-9-9-9--2-2-2-2---------------------------|

Chorus continued
e-----------------------------------------------------------------------------------------|
B-----------------------------------------------------------------------------------------|
G--------------------12-12-12-12--11-11-11-11--------------------12-12-12-12--------------|
D--2-2-2-2--9-9-9-9--12-12-12-12--11-11-11-11--2-2-2-2--9-9-9-9--12-12-12-12--11-11-11-11-|
A--2-2-2-2--9-9-9-9--10-10-10-10---9--9--9--9--2-2-2-2--9-9-9-9--10-10-10-10---9--9--9--9-|
D--2-2-2-2--9-9-9-9----------------------------2-2-2-2--9-9-9-9---------------------------|

Brige All Notes Are Held Out....
e-------------------------------|
B-------------------------------|
G-----------------12-----11-----|
D---2------9------12-----11-----|
A---2------9------10------9-----|
D---2------9--------------------|


Ваше мнение



Капча