Rammstein - Sehnsucht
-Sehnsucht-
Standard Tuning
|-e-|
|-B-|
|-G-|
|-D-|
|-A-|
|-E-|
Main Riff:
||--------------------------------------||
||------------------------------X-X-----||
||-------9-8---10-8---12-----10-X-X-9-7-||
||-------9-8---10-8---12-----10-X-X-9-7-||
||-------7-6----8-7---10------8-X-X-7-5-||
||-0-0-0-----0------0----0-0------------||
pm...] pm pm pm.]
Begin when they start chant Sehnsucht.
||-------------------------------||
||-------------------------------||
||-9-----9-----9---9-----9-------||
||-9-----9-----9---9-----9-------||
||-7-----7-----7---7-----7-5-4-3-||
||---0-0---0-0---0---0-0---3-2-1-||
pm.] pm.] pm pm.] pm...]
Fill Chords
||---------------------------------------||
||---------------------------------------||
||-9-------5--------7--------------------||
||-9-------5--------7----------7---------||
||-7-------3--------5----------7---------||
||-----------------------------5---------||
Second Chorus
||------------------------------------------------------||
||------------------------------------------------------||
||---------------------------------5---5-4-2------------||
||-2---------------2---------------5---5-4-2------------||
||-2------5-5-4-3--2------5-5-4-3--3---3-2-0----5-5-4-3-||
||-0------3-3-2-1--0------3-3-2-1---------------3-3-2-1-||
pm.....] pm.....] pm.....]
Tabbed by Russ Chandler...Website URL www.angelfire.com/nj/hierate.
-Engel-
Drop D Tuning
|-e-|
|-B-|
|-G-|
|-D-|
|-A-|
|-D-|
This is whistled by the two lead guitarists at the same time.
||--10---------------------------||-10-------------------------||
||------10-13----10-12------8-10-||-----10-13----10-12-----8---||
||-------------------------------||--------------------------7-||
||-------------------------------||----------------------------||
||-------------------------------||----------------------------||
||-------------------------------||----------------------------||
Main Guitar Part 3x
||-----------------------------------||---------------------------------||
||*---------------------------------*||---------------------------------||
||-----------------------------------||---------------------------------||
||-----------------------------------||---------------------------------||
||*-3h5-----6p5-----3h5---3h5---6p5-*||-3h5-----6p5-----3h5---3h5-3-3-3-||
||------0-0-----0-0-----0-----0------||-----0-0-----0-0-----0-----3-3-3-||
pm.] pm.] pm pm pm.] pm.] pm
pm...]
Chorus
(Play it clean for the best effect)
||------------------------------------||----------------------------||
||------------------------------------||----------------------------||
||-7-------5--------------------------||---7------9------12---------||
||-7-------5-------5--------0---------||---7------9------12---------||
||-5-------3-------5--------0---------||---5------7------10---------||
||-----------------5--------0---------||----------------------------||
Just as the clouds... Alone in fear...
Tabbed by Russ Chandler...Website URL www.angelfire.com/nj/hierate.
-Tier-
Drop D Tuning
|-e-|
|-B-|
|-G-|
|-D-|
|-A-|
|-D-|

Here are the
chords used:
G A# C D
|-0-| |-1-| |-0-| |-3-|
|-2-| |-3-| |-1-| |-2-|
|-0-| |-3-| |-0-| |-3-|
|-0-| |-3-| |-2-| |-0-|
|-2-| |-1-| |-3-| |-0-|
|-3-| |---| |---| |-0-|
Acoustic Parts:
-G-A#-C-D
-G-A#-C
Main Riff
||----------------------------------------------------------||
||----------------------------------------------------------||
||-----------------8-7-5/7---------------------8-10-87-----||
||-----------------8-7-5/7---------------------8-10-87-----||
||-3h5-----3h5-----6-5-3/5-----3h5-----3h5-----6--8-65-----||
||-----0-0-----0-0---------0-0-----0-0-----0-0----------0-0-||
pm.] pm.] pm.] pm.] pm.] pm.]
Chorus
||-----------------||-----------------||-----------------------||-----------------||
||-----------------||-----------------||-----------------------||-----------------||
||-----------------||-----------------||-----------------------||-----------------||
||-----------------||-----------------||-----------------------||-----------------||
||-3h5-5-5-3h5-5-5-||-5h8-8-8-5h8-8-8-||-8h10-10-10-8h10-10-10-||-0h3-3-3-0h3-3-3-||
||-3h5-5-5-3h5-5-5-||-5h8-8-8-5h8-8-8-||-8h10-10-10-8h10-10-10-||-0h3-3-3-0h3-3-3-||
pm.] pm.] pm.] pm.] pm...] pm...]
pm.] pm.]
Play this on the keyboard...
||------5-----1-----3-------||
||-3------------------------||
||--------------------------||
||--------------------------||
||--------------------------||
||--------------------------||
Tabbed by Russ Chandler...Website URL www.angelfire.com/nj/hierate.
-Bestrafe Mich-
Drop D tuning
|-e-|
|-B-|
|-G-|
|-D-|
|-A-|
|-D-|
Riff 1
||--------------------------------------------------||.||---------------||
||--------------------------------------------------||.||---------------||
||--------------------------------------------------||.||---------------||
||--------------------------------------------------||.||-------------2-||
||-2-2-2--2-2--2-2-2--2-2--2-2-2--2-2--2/5-2--2--2--||.||-5-4-3-5-4-3-2-||
||-2-2-2--2-2--2-2-2--2-2--2-2-2--2-2--2/5-2--2--2--||.||-5-4-3-5-4-3-2-||
pm................................] pm.....] pm.........]
Verse
||----------------------------------||
||----------------------------------||
||----------------------------------||
||----------------------------------||
||-2-2--2-2-2--2-2--2-2--2-2-2--1-0-||
||-2-2--2-2-2--2-2--2-2--2-2-2--1-0-||
pm..............................]
Chorus
||------------------------------------------||
||------------------------------------------||
||----------4----------5---------9----------||
||-2--------4----------5---------9----------||
||-2--------2----------3---------7----------||
||-2----------------------------------------||
Tabbed by Russ Chandler...Website URL www.angelfire.com/nj/hierate.
-Du Hast-
Standard Tuning
|-e-|
|-B-|
|-G-|
|-D-|
|-A-|
|-E-|
Intro
||----------------------------------------------||.||------------------------||
||----------------------------------------------||.||------------------------||
||----------------------------------------------||.||------------------------||
||-75----------------75-----------------------||.||-5/7--------------------||
||-75-2--2--2-2-2--2-75-2--2--2--2-2-2--2-2-2-||.||-5/7-7--7--7-7-7--7-7-7-||
||-53-0--0--0-0-0--0-53-0--0--0--0-0-0--0-0-0-||.||-3/5-5--5--5-5-5--5-5-5-||
pm............] pm...................]
pm................]
Verse
||------------------------------------------------||
||*----------------------------------------------*||
||------------------------------------------------||
||--75----------------75------------------------||
||*-75-2--2--2-2-2--2-75-2--2--2--2-2-2--2-2-2-*||
||--53-0--0--0-0-0--0-53-0--0--0--0-0-0--0-0-0--||
pm............] pm...................]
||--------------------------||
||*------------------------*||
||--------------------------||
||--5/7---------------------||
||*-5/7-7--7--7-7-7--7-7-7-*||
||--3/5-5--5--5-5-5--5-5-5--||
pm................]
||----------------------------------------------------||
||----------------------------------------------------||
||----------------------------------------------------||
||-7/10----------------------119---------------------||
||-7/10-10--10--10-10-10--10-119--9--9--9-9-9--9-9-9-||
||-5/8---8---8---8--8--8---8--97--7--7--7-7-7--7-7-7-||
pm..................] pm.................]
Tabbed by Russ Chandler...Website URL www.angelfire.com/nj/hierate.
-Вьск Dich-
Drop D tuning
|-e-|
|-B-|
|-G-|
|-D-|
|-A-|
|-D-|
Main riff
||--------------------------------||
||*-------------------------------*||
||--------------------------------||
||---------------------------------||
||-0---3---2---3---5---3-------0--||
||------3---2---3---5---3-------0--||
||-0---3---2---3---5---3-0-2/3-0--||
||*-----3---2---3---5---3-0-2/3-0-*||
||-0-0-3-0-2-0-3-0-5-0-3-0-2/3-0--||
||--0-0-3-0-2-0-3-0-5-0-3-0-2/3-0--||
pm pm pm pm pm pm.] pm pm pm pm
Fill
||----------------------------------||
||----------------------------------||
||----------------------------------||
||----------------------------------||
||----3---2---3---5---3---0--2/3-0--||
||0-0-3-0-2-0-3-0-5-0-3-0-0--2/3-0--||
pm..............................]
Tabbed by Russ Chandler...Website URL www.angelfire.com/nj/hierate.
-Spiel mit mir-
Standard tuning
|-e-|
|-B-|
|-G-|
|-D-|
|-A-|
|-E-|
The verse goes as follows...
||---------------------------------------------||
||---------------------------------------------||
||--------4------------------------------------||
||--------2------------------------------------||
||-2-2-2----2-2-2--2-2-2--3-3-3--3-3--4-4--4-4-||
||-0-0-0----0-0-0--0-0-0--1-1-1--1-1--2-2--2-2-||
pm...] pm................................]
Bridge
||------------------------------------------||
||------------------------------------------||
||--------2---------------------------------||
||-2-2-2--2-2-2-2--2-2-2--2-2-3--3-3--------||
||-0-0-0----0-0-0--0-0-0--0-0-1--1-1-5--5-5-||
||-----------------------------------3--3-3-||
pm...] pm.............................]
Chorus
||------------------------------------------------||
||------------------------------------------------||
||------------------------------------------------||
||-4-4-4----------------2-2-2--2-2----------------||
||-2-2-2--2-2-2--2-2-2--0-0-0--0-0--3--3-3-2--2-2-||
||--------0-0-0--0-0-0--------------1--1-1-0--0-0-||
Solo:
Keep repeating till they quit.
||---------------------------------------||
||-12-0-12-0-12-0-12-0-12-0-12-0-12-0-12-||
||---------------------------------------||
||---------------------------------------||
||---------------------------------------||
||---------------------------------------||
Tabbed by Russ Chandler...Website URL www.angelfire.com/nj/hierate.
-Klavier-
Standard tuning
|-e-|
|-B-|
|-G-|
|-D-|
|-A-|
|-E-|
Basically strum these and try to keep up.
||---------------------||---------------------------||
||-10-----8----6-8-5---||-10-10---8-8---6-6---5-----||
||---------------------||---------------------------||
||---------------------||---------------------------||
||---------------------||---------------------------||
||---------------------||---------------------------||
||---------------------||------------------------||
||-8-----6-----5-6-5---||-8-8----7-7----5----5---||
||---------------------||------------------------||
||---------------------||------------------------||
||---------------------||------------------------||
||---------------------||------------------------||
||---------------------------||---------------------------||
||-10//////////-8/////////---||-6///////-8//////-5///////-||
||-10//////////-8/////////---||-6///////-8//////-5///////-||
||-10//////////-8/////////---||-6///////-8//////-5///////-||
||---------------------------||---------------------------||
||---------------------------||---------------------------||
Tabbed by Russ Chandler...Website URL www.angelfire.com/nj/hierate.
-Alter Mann-
Drop D tuning
|-e-|
|-B-|
|-G-|
|-D-|
|-A-|
|-D-|
Verse Riff:
||-----------------------------------------------||
||-----------------------------------------------||
||-----------------------------------------------||
||-----------------------------------------------||
||---2-----2---2-----2-----2---2-----2-----0-1-3-||
||-2-2-2-2-2-2-2-2-2-2-2-2-2-2-2-2-2-2-2-2-0-1-3-||
pm pm.] pm pm.] pm.] pm pm.] pm.]
Chorus:
||---------------------------------------------------------------------||
||---------------------------------------------------------------------||
||---------------------------------------------------------------------||
||---5-----5---5-----5-----5---5-------4-----4---4-----4-----4---4-----||
||-3-3-3-3-3-3-3-3-3-3-3-3-3-3-3-3-3-2-2-2-2-2-2-2-2-2-2-2-2-2-2-2-2-2-||
||---------------------------------------------------------------------||
pm pm.] pm pm.] pm.] pm pm...] pm.] pm pm.] pm.] pm pm.]

||---------------------------------------------------------------------||
||---------------------------------------------------------------------||
||---------------------------------------------------------------------||
||---5-----5---5-------9-----9---9-----4-----4---4-----4-----4---4-----||
||-3-3-3-3-3-3-3-3-3-7-7-7-7-7-7-7-7-2-2-2-2-2-2-2-2-2-2-2-2-2-2-2-2-2-||
||---------------------------------------------------------------------||
pm pm.] pm pm...] pm.] pm pm.] pm.] pm pm.] pm.] pm pm.]

Fill:
||----------------||
||----------------||
||----------------||
||-0--------------||
||-0------------2-||
||-0----7-8-7-5-2-||
Tabbed by Russ Chandler...Website URL www.angelfire.com/nj/hierate.
-Eifersucht-
Drop D tuning
|-e-|
|-B-|
|-G-|
|-D-|
|-A-|
|-D-|
Keyboard Intro:
||--------------------||--------------------||
||--------------------||--------------------||
||--------------------||--------------------||
||-2--2-2-2--2--2-4-5-||-2--2-2-2--2--2-0---||
||--------------------||------------------2-||
||--------------------||--------------------||
Riff 1:
||----------------------------||
||----------------------------||
||----------------------------||
||----------------------------||
||-2--2--2-2--2--2--2-2-4--5--||
||-2--2--2-2--2--2--2-2-4--5--||
pm...................]
Riff 2:
||----------------------------||
||----------------------------||
||----------------------------||
||----------------------------||
||-0-----2--3------0-----2--3-||
||-0-----2--3------0-----2--3-||
Verse Riff:
||----------------------------|| ||----------||
||----------------------------|| ||----------||
||----------------------------|| ||----------||
||----------------------------|| ||---4^~^~^-||
||-3--3--3-3--3--3--3-3-3--5--|| ||----------||
||-3--3--3-3--3--3--3-3-3--5--|| ||----------||
pm....................]
Tabbed by Russ Chandler...Website URL www.angelfire.com/nj/hierate.
-Кьss Mich-(Fellfrosch)-
Drop D Tuning
|-e-|
|-B-|
|-G-|
|-D-|
|-A-|
|-D-|
Main Riff
||------------------------||
||------------------------||
||------------------------||
||---2---2-----2---2---1--||
||---4---4-----4---4---1--||
||-0-4-0-4-0-0-4-0-4-0-1--||
pm pm pm.] pm pm
Fill Chords
||---------------------------------||
||---------------------------------||
||---------5------6-------------7--||
||--5------5------6------7------7--||
||--5------3------4------7------5--||
||--3--------------------5---------||
Tabbed by Russ Chandler...Website URL www.angelfire.com/nj/hierate.




Ваше мнение



Капча