From: Xenon [email protected]
Seemann
BASS
|---------18--------------16-------------14--------------13--------|----
|-----14------14------14------14-----14------14------14------------|----
|--0--------------0---------------0---------------0----------------|----
|------------------------------------------------------------------|----
|---------11------------11-------------13------------13------------|----
|------9------9------9-------9------9------9------9----------------|----
|--11------------11-------------11------------11-------------------|----
|------------------------------------------------------------------|----
|---------14-------------13--------------11-----------------9------|----
|-----11------11-----11------11------11-------11-------11----------|----
|--9--------------9--------------9-----------------9---------------|----
|------------------------------------------------------------------|----
|------------------------------------------------------------------|----
|---------11--------------10-------------11-------------11---------|----
|-----11-------11------11-----11------11----11------11-------------|----
|--9----------------9--------------9-------------9-----------------|----
(distorted) GUITAR (chorus only)
trem. picking throughout - [basically, strum as fast as you can]
* the chord is played until the end of the bar ---------------here----->
|------------------------------------------------------------------|----
|------------------------------------------------------------------|----
|------------------------------------------------------------------|----
|-11---------------------------------------------------------------|----
|-11---------------------------------------------------------------|----
|--9---------------------------------------------------------------|----
|------------------------------------------------------------------|----
|------------------------------------------------------------------|----
|------------------------------------------------------------------|----
|--9---------------------------------------------------------------|----
|--9---------------------------------------------------------------|----
|--7---------------------------------------------------------------|----
|------------------------------------------------------------------|----
|------------------------------------------------------------------|----
|------------------------------------------------------------------|----
|--7---------------------------------------------------------------|----
|--7---------------------------------------------------------------|----
|--5---------------------------------------------------------------|----
|------------------------------------------------------------------|----
|------------------------------------------------------------------|----
|------------------------------------------------------------------|----=
|--6---------------------------------------------------------------|----
|--6---------------------------------------------------------------|----
|--4---------------------------------------------------------------|----




Ваше мнение



Капча