Author/Artist: Rammstein
Title: Schwarzes Glas
Album: Unreleased
Transcribed by: Willy Wonka
Email: [email protected]

(standard tuning)

such a simple song, yet oh, so good! :)

intro
------------
------------
------------
-7-10-7-8/5-
-7-10-7-8/5-
-7-10-7-8/5-

verse
----------------
----------------
----------------
-2-2-2-2-2/3-0--
-2-2-2-2-2/3-0--
-2-2-2-2-2/3-0--

chorus
----------------
----------------
----------------
-3-0-7-10-7-8/5-
-3-0-7-10-7-8/5-
-3-0-7-10-7-8/5-

solo/outro
------------------------------------------------------------------------------
-----12-0-----12-0-----12-0-10-0-7-0-----10-0-----7-0---------8-0-------------
-9-0------9-0------9-0---------------7-0------7-0-----7-0-5-0-----5-0---------
------------------------------------------------------------------------------
------------------------------------------------------------------------------
------------------------------------------------------------------------------


----------------------
-8-0-----8-0-----8-0--
-----5-0-----5-0------
----------------------
----------------------
----------------------




Ваше мнение



Капча