From: ramwoolf [email protected]
Rammstein Rosenrot Аккорды
вО ВРЕМЯ КУПЛЕТА
E|----------------------------------------------------------------|
B|----------------------------------------------------------------|
G|----------------------------------------------------------------|
D|----------------------------------------------------------------|
A|----------------------------------------------------------------|
E|-4-4-4-4-4-4-4-4-0-0-0-0-0-0-0-0-4-4-4-4-4-4-4-4-0-0-0-0-0-0-5-5|
вО ВРЕМЯ ПРИПЕВА
E|-----------------------------------------------------------------|-
B|-----------------------------------------------------------------|-
G|-----------------------------------------------------------------|-
D|-5-5-5-5-5-5-5-5-6-6-6-6-6-6-6-6-5-5-5-5-5-5-5-5-4-4-4-4-4-4-2-2-|-
A|-5-5-5-5-5-5-5-5-6-6-6-6-6-6-6-6-5-5-5-5-5-5-5-5-4-4-4-4-4-4-2-2-|-
E|-3-3-3-3-3-3-3-3-4-4-4-4-4-4-4-4-3-3-3-3-3-3-3-3-2-2-2-2-2-2-0-0-|-
Tiefe brunnen... Wenn man klares...

E|-----------------------------------------------------------------|-
B|-----------------------------------------------------------------|-
G|-----------------------------------------------------------------|-
D|-4-4-4-4-4-4-4-4-3-3-3-3-3-3-3-3-4-4-4-4-4-4-4-4-3-3-3-3-3-3-2-2-|-
A|-4-4-4-4-4-4-4-4-3-3-3-3-3-3-3-3-4-4-4-4-4-4-4-4-3-3-3-3-3-3-2-2-|-
E|-2-2-2-2-2-2-2-2-1-1-1-1-1-1-1-1-2-2-2-2-2-2-2-2-1-1-1-1-1-1-0-0-|-
Rosenrot o Rosenrot..... Tiefe wasser sind night still...

Solo (после второго и третьего припевов)
E|---------------------------------------------------------------
B|---------------------------------------------------------------
G|--------------------------------------------------------------- ИГРАТЬ ПО 2 РАЗА
D|--------------------------------------------------------------- /
A|--------------------------------------------------------------- /
E|-7-5-7-7-5-7-7-5-7-5-7-7-5-7-7-5-7-5-7-7-5-7-7-4-5-4-4-5-4-4-5- /
Подобрал: ramwoolf




Ваше мнение



Капча