--------------------------------------------------
Rammstein - Moskau
--------------------------------------------------
CD: Reise, Reise
Record Company: Motormusic
Author: Rammstein ([email protected])
I have both Paul's and Richard's parts...play either that applys to you
PART I
e---------------------------------------------
b---------------------------------------------
g---------------------------------------------
d------6------8------2------------------------
a------6------8------2------------------------
d------6------8------2------------------------
e---------------------------------------------
b---------------------------------------------
g---------------------------------------------
d------6------8------2------9--8--------------
a------6------8------2------9--8--------------
d------6------8------2------9--8--------------
PART II
e---------------------------------------------
b---------------------------------------------
g---------------------------------------------
d------6------8------2------------------------
a------6------8------2------------------------
d------6------8------2------------------------
e---------------------------------------------
b---------------------------------------------
g---------------------------------------------
d------6------4------2------------------------
a------6------4------2------------------------
d------6------4------2------------------------
PART III
e---------------------------------------------
b---------------------------------------------
g---------------------------------------------
d------6------8------2------9--8--------------
a------6------8------2------9--8--------------
d------6------8------2------9--8--------------
e---------------------------------------------
b---------------------------------------------
g---------------------------------------------
d------6------4------2------------------------
a------6------4------2------------------------
d------6------4------2------------------------
RIFF I (This is played AFTER KEBOARD SOLO)
e---------------------------------------------
b---------------------------------------------
g---------------------------------------------
d------0------7------6------1-----------------
a------0------7------6------1-----------------
d------0------7------6------1-----------------
LAST CHORUS
e---------------------------------------------
b---------------------------------------------
g---------------------------------------------
d------6------8------9-----11-----------------
a------6------8------9-----11-----------------
e------6------8------9-----11-----------------
e---------------------------------------------
b---------------------------------------------
g---------------------------------------------
d------6------8------2------------------------
a------6------8------2------------------------
d------6------8------2------------------------
e---------------------------------------------
b---------------------------------------------
g---------------------------------------------
d------6------8------9-----11----13-----------
a------6------8------9-----11----13-----------
e------6------8------9-----11----13-----------
e---------------------------------------------
b---------------------------------------------
g---------------------------------------------
d------6------8------9----9--8----------------
a------6------8------9----7--6----------------
d------6------8------9------------------------
etc... sometimes a more chord is played ...
INTRO(2XPART I, 1X PART II)
VERSE(1XPART I+ 1XPART II (ONLY BASS))
CHORUS 1(PART I+PART II)
CHORUS 2(PART I+ PART III)
KEYBOARD-SOLO (SAME AS CHORUS 1)
RIFF(known as Riff I)
INTRO
VERSE
CHORUS 1
VERSE
CHORUS 2
CHORUS 1 (play over keyboard)
RIFF I
2XLAST CHORUS
Feel free to Comment, or adjust to my tab




Ваше мнение



Капча