C5 D5 E#5 G#5
|------------------------------
|------------------------------
|--5-------7--------10-----4---
|--5-------7--------10-----6---
|--3-------5--------8------6---
|--3-------5--------8------4---
Interlude 1:
|----------------------------------------------
|----------------------------------------------
|--5555555--5555555--5555555--5555555----------
|--5555555--5555555--5555555--5555555----------
|--3333333--3333333--3333333--3333333----------
|--3333333--3333333--3333333--3333333--9-7^6---
Verse 1\Intro 2:
|--------------------------------------
|--------------------------------------
|--5555555--5555555--5555555--5555555--
|--5555555--5555555--5555555--5555555--
|--3333333--3333333--3333333--3333333--
|--3333333--3333333--3333333--3333333--
Verse 2(Gt 1):
|--------------------------------------
|--------------------------------------
|--5555555--5555555--5555555--5555555--
|--5555555--5555555--5555555--5555555--
|--3333333--3333333--3333333--3333333--
|--3333333--3333333--3333333--3333333--
Verse 2(Gt2):
|------------------------------------------
|------------------------------------------
|---------12^^-----15^^-----12^^-----15^^--
|------------------------------------------
|------------------------------------------
|------------------------------------------
Chorus\Interlude 2:
C5 - D5 - E#5 - G#5
Intro
Interlude 1 (x2)
Verse 1 (x2)
Ich hab’ keine Lust
Ich hab’ keine Lust
Ich hab’ keine Lust
Ich hab’ keine Lust
Ich habe keine Lust mich nicht zu hassen
Hab’ keine Lust mich anzufassen

Verse 2 (x2)
Ich hutte Lust zu onanieren
Hab’ keine Lust es zu probieren
Ich hutte Lust mich auszuziehen
Hab’ keine Lust mich nackt zu sehen
Chorus (x2)
Ich hutte Lust mit grosen Tieren
Hab’ keine Lust es zu riskieren
Hab’ keine Lust vom Schnee zu gehen
Hab’ keine Lust zu erfrieren
Interlude 1 (x1)
Verse 1 (x2)
Ich hab’ keine Lust
Ich hab’ keine Lust
Ich hab’ keine Lust
Nein ich hab keine Lust
Ich hab’ keine Lust etwas zu kauen
Denn ich hab’ keine Lust es zu verdauen
Verse 2 (x1)
Hab’ keine Lust mich zu wiegen
Hab’ keine Lust im Fett zu liegen
Chorus (x4)
Ich hutte Lust mit grosen Tieren
Hab’ keine Lust es zu riskieren
Hab’ keine Lust vom Schnee zu gehen
Hab’ keine Lust zu erfrieren
Ich bleibe einfach liegen
Und wieder zuhle ich die Fliegen
Lustlos fasse ich mich an
Und merke bald ich bin schon lange kalt
Interlude 2 (x2)
So kalt, mir ist kalt
So kalt, mir ist kalt
Verse 1 (x5)
Interlude 2 (x3)
Mir ist kalt, so kalt
Mir ist kalt, so kalt
Mir ist kalt, so kalt
Mir ist kalt
Interlude 1 (x2)
Ich hab’ keine Lust




Ваше мнение



Капча