Author/Artist: Rammstein
Title: Hierate Mich
Album: Lost Highway Soundtrack
Transcribed by: Nathan Schneider
Email: [email protected]

Main Riff:

-----------------------------------
-----------------------------------
-----------------------------------
-2-x-2-x-2-x-2-x--5--4-4--4-/-5---
-2-x-2-x-2-x-2-x--5--4-4--4-/-5---
-0-x-0-x-0-x-0-x--3--2-0--2-/-3---


Chorus:

----------------------------------------
----------------------------------------
----------------------------------------
-9----x---10----9---x-x-10----9-x-x-10--
-9----x---10----9---x-x-10----9-x-x-10--
-7----x---8-----7---x-x-8-----7-x-x-8---


Bridge:
3x
|-------------------------|---------||
|-------------------------|---------||
|-------------------------|---------||
|-11-x-11-x-11-x-11--12---|-11--10--||
|-11-x-11-x-11-x-11--12---|-11--10--||
|-9--x-9--x-9--x-9---10---|-9---8---||




Ваше мнение



Капча