Feuerraeder
By Rammstein
Tabbed By Mike Gagnon

Standard Tuning

Intro

e-------------------
B-------------------
G-10--7--------8--7-
D-10--7--------8--7-
A--8--5-X-X-X--6--5-
E-------------------

Riff

e-----6---6-6'-5---------8---6--
B---7------------6-----9-----6'-
G-8-----------------10----------
D-------------------------------
A-------------------------------
E-------------------------------

e-----6---6-6'-5---------8---6---16-15-
B---7------------6-----9---------------
G-8-----------------10-----------------
D--------------------------------------
A--------------------------------------
E--------------------------------------

Riff Guitar2

e------------------------------------------------------
B------------------------------------------------------
G-8-----------8-7-----------7-10----------12-7---------
D-8-----------8-7-----------7-10----------12-7---------
A-6-x-x-x-x-x-6-5-x-x-x-x-x-5-8-x-x-x-x-x-10-5-x-x-x-x-
E------------------------------------------------------

Other Piece

e---------
B---------
G-14---9--
D-14---9--
A-12---7--
E---------

solo

e------------------------------------------------------------------
B---------------18-17-15-17----------------------------------------
G-17'-17'-14-14----------------14--14/12-12'----------------------
D---------------------------------------------14-15-17-15-14-15/14-
A------------------------------------------------------------------
E------------------------------------------------------------------

e------------------------------------
B------------------------------------
G------------------------------------
D-----14-15-17-15-14-15/14-----------
A-15------------------------15-17'---
E------------------------------------




Ваше мнение



Капча