Bestrafe Mich
By: Rammstein
Standard Tuning

Intro:
-----------------------------------------------------------------------------
-----------------------------------------------------------------------------
--4----------4--------4---5---------5/9------------5-----------4-------------
--4----------4--------4---5---------5/9------------5-----------4-------------
--2----------2--------2---3---------3/7------------3-----------2-------------
--------------------------------------0--------0-0---------------------------
1st Riff
-----------------------------------------------------------------------------
-----------------------------------------------------------------------------
-----------------------------------------------------------------------------
-----------------------------------------------------------------------------
-3-2-2--2--2--3-2-2--2--2--3-2-2--2--2--4/6-2--2--2--3-2-2--2--2--3-2--2--2-2
-1-0-0--0--0--1-0-0--0--0--1-1-1--1--1--2/4-0--0--0--1-0-0--0--0--1-0--0--0-0
2nd Riff
-----------------------------------------------------------------------------
-----------------------------------------------------------------------------
-----------------------------------------------------------------------------
----------------------------------2----2----2----2----2----2--------------2--
-3-2-2--2--2--5-5-2-2-5-5-2-2--2--2----2----2----2----2----2--5-5-2-2-5-5-2--
-1-0-0--0--0--3-3-0-0-3-3-0-0--0------------------------------------------0--
3rd Riff
-----------------------------------------------------------------------------
-----------------------------------------------------------------------------
-----------------------------------------------------------------------------
-2----2----2----2----2----2----2----2----2----2----2----2----2----2----1----0
-2----2----2----2----2----2----2----2----2----2----2----2----2----2----1----0
-----------------------------------------------------------------------------
Repeat This Twice, Play The Song Over From The Intro And Play Same Except Stop
Short Three Notes. Then Play It Over A Third Time But Stop Before the 2nd Riff
And play This Keyboard Bit
-----------------------------------------------------------------------------
-----------------------------------------------------------------------------
-5-0-----3-0-5-0-1-3-0-5-0-1-0-5-0-----3-0-5-0-1-0-3-0-5-0-------------------
-----4-5---------------------------4-5---------------------4-5---------------
-----------------------------------------------------------------------------
-----------------------------------------------------------------------------
Repeat That And Play This Keyboard Bit
-----------------------------------------------------------------------------
-14----14----14----15----15-------15------------------------10-----10----10-7
----12----12----12----13----13-------13-12------12------12------7------7-----
-------11----11----------11----------------9-------9-------9------9------9---
-------------------------------14------------10------10----------------------
-----------------------------------------------------------------------------

-----------------------------------------------------------------------------
-8-----8-----8-----------19--------------------------------------------------
----------------------19----19-----------------------------------------------
---9-----9-----9---16----------16--------------------------------------------
-----7-----7----------------------16----16-----------------------------------
-------------------------------------14--------------------------------------
Play The Intro Then This Part
-----------------------------------------------------------------------------
-----------------------------------------------------------------------------
-----------------------------------------------------------------------------
4-4-4--4--4--4-4-4--4--4--4-4-4--4--4--4-4--4--4--5-5-5--5--5-5-5--5--5--9-9-
2-2-2--2--2--2-2-2--2--2--2-2-2--2--2--2-2--2--2--3-3-3--3--3-3-3--3--3--7-7-
-----------------------------------------------------------------------------

-----------------------------------------------------------------------------
-----------------------------------------------------------------------------
-----------------------------------------------------------------------------
-9--9--9--9-9-9--9--5-5-5--5--5--5-5-5--5-5--4-4-4--4--4--4-4-4--4--4--4-4-4-
-7--7--7--7-7-7--7--3-3-3--3--3--3-3-3--3-3--2-2-2--2--2--2-2-2--2--2--2-2-2-
-----------------------------------------------------------------------------

-----------------------------------------------------------------------------
-----------------------------------------------------------------------------
-----------------------------------------------------------------------------
-4--4--4-4-4-4--4--4--4-4-4--4--4--4-4-4--4-4--4-4-4--4--4--4-4-4--4--4--5-5-
-2--2--2-2-2-2--2--2--2-2-2--2--2--2-2-2--2-2--2-2-2--2--2--2-2-2--2--2--3-3-
-----------------------------------------------------------------------------

-----------------------------------------------------------------------------
-----------------------------------------------------------------------------
-----------------------------------------------------------------------------
-5--5--5--5-5-5--5--5--5--9-9-9--9--9--9-9-9--9--9--5-5-5--5--5--5-5-5--5--5-
-3--3--3--3-3-3--3--3--3--7-7-7--7--7--7-7-7--7--7--3-3-3--3--3--3-3-3--3--3-
-----------------------------------------------------------------------------

-----------------------------------------------------------------------------
-----------------------------------------------------------------------------
-----------------------------------------------------------------------------
-4-4--4--4--4-4-4-4--4--4-------------------------------2--------------------
-2-2--2--2--2-2-2-2--2--2--2--2--2--2--5-5-2-2-2-2-2-2--2--------------------
---------------------------0--0--0--0--3-3-0-0-3-3-0-0--0--------------------

Lyrics

Bestrafe Mich
Stroh Wild Gold
Und Gold Wird Stein
Deine Grose
Macht Mich Klein
Du Darfst Mein Besrafer Sein ja
Der Herrgott Nimmt
Der Herrgott Gibt
Du Meinst Ja
Und Ich Denk Nein!
Schliess Mich Ein In
Dein Gebet
Bevor Der Wind Noch Kalter Weht
Der Herrgott Nimmt
Der Herrgott Gibt
Den Er Auch Liebt




Ваше мнение



Капча