Alter Mann

Drop D tuning
|-e-|
|-B-|
|-G-|
|-D-|
|-A-|
|-D-|

Verse Riff:
|-----------------------------------------------|
|-----------------------------------------------|
|-----------------------------------------------|
|-----------------------------------------------|
|---2-----2---2-----2-----2---2-----2-----0-1-3-|
|-2-2-2-2-2-2-2-2-2-2-2-2-2-2-2-2-2-2-2-2-0-1-3-|
pm pm.] pm pm.] pm.] pm pm.] pm.]

Chorus:
|---------------------------------------------------------------------|
|---------------------------------------------------------------------|
|---------------------------------------------------------------------|
|---5-----5---5-----5-----5---5-------4-----4---4-----4-----4---4-----|
|-3-3-3-3-3-3-3-3-3-3-3-3-3-3-3-3-3-2-2-2-2-2-2-2-2-2-2-2-2-2-2-2-2-2-|
|---------------------------------------------------------------------|
pm pm.] pm pm.] pm.] pm pm...] pm.] pm pm.] pm.] pm pm.]

|---------------------------------------------------------------------|
|---------------------------------------------------------------------|
|---------------------------------------------------------------------|
|---5-----5---5-------9-----9---9-----4-----4---4-----4-----4---4-----|
|-3-3-3-3-3-3-3-3-3-7-7-7-7-7-7-7-7-2-2-2-2-2-2-2-2-2-2-2-2-2-2-2-2-2-|
|---------------------------------------------------------------------|
pm pm.] pm pm...] pm.] pm pm.] pm.] pm pm.] pm.] pm pm.]

Fill:
|----------------|
|----------------|
|----------------|
|-0--------------|
|-0------------2-|
|-0----7-8-7-5-2-|

tabbed by Rebel X
Ramms+ein tabs: http://www.geocities.com/SunsetStrip/Pit




Ваше мнение



Капча