I know others have tabbed this but only with power chords - this is not how rainbow play it! Im not too sure about the solo so if anyone does know it please post it up. Anyways here is the music...
Im not too sure off the top of my heaad how many beats it all is but this is the basic structure:

e-3-3---5-5---7-7---8--8----
B-3-3---7-7---8-8---8--8----
G-4-4---7-7---9-9---9--9----
D-5-5---7-7---9-9---10-10---
A-5-5---5-5---7-7---10-10---
E-3-3---5-5---7-7---8--8----

e-3-3---5-5---7-7---8--8----5-5---
B-3-3---7-7---8-8---8--8----7-7---
G-4-4---7-7---9-9---9--9----7-7---
D-5-5---7-7---9-9---10-10---7-7---
A-5-5---5-5---7-7---10-10---5-5---
E-3-3---5-5---7-7---8--8----5-5---

This is just one of my many good tabs!!! If you have any comments suggestions or alterations then email me [email protected]
My web site address is:
http://mysite.freeserve.com/jellytots
Please visit it as took me ages and its not getting very much publicity!!!




Ваше мнение



Капча