Rainbow
Rainbow Eyes
from Long Live Rock'n'Roll
** Cool song but it's unreal to tab Blackmore.
Notation tips:
--P10-- means strong pull off, i.e. you pick the previous
note (12 for example) again but very quickly and
immediatelly make pull off, so that previous note
even doesn't sound but the pull off itself sounds
In flute solo there is --12--P10--, it's like --12--12p10--
but the second "12" should not sound.
--9m-- mute string right after the note
(just up your finger but keep holding string)

Intro:
I don't know how many guitars are playing there
or how many finger Ritchie has ;).
I only got chords and something from intro riff.
chords are:
Em - Am/Am6/Am ( Am6 I call 002212 )
Em - C - Am
Em - D - C - D
and riff starts like this:
e|--------0-------|---------------|----------------|----------------|
B|------------3---|---------------|----------------|-7---5----------|
G|----------------|-4p3p2----2--4-|-5--------------|----------------|
D|------2---------|-------5-------|----------------|----------------|
A|----------------|---------------|------------(3)-|----------------|
E|-0--------------|---------------|----------------|----------------|
e|--------0-------|---------------|------? ?
B|------------3---|---------------|------? ? If you have any ideas
G|----------------|-4p3p2----2--4-|------? ? about what to play here
D|------2---------|-------5-------|------? ? please, please mail me
A|----------------|---------------|-3----? ? at
E|-0--------------|---------------|------? ? [email protected]
Song Chords:
Verse:
Em - G - D - Am - C - D - Em
Em - G - D - Am - C - D - Em
Chorus (or what is it):
C - D - G
Em - A - D
C - D - G
C - C - Am - Am
Em and solos solos solos
Flute solo (arraned for guitar):
e----|----------------|---------------|-10---------------|----------------|
B----|-------------10-|-12------10-12-|----12--P10-------|-10-------------|
G----|-12----11-12----|---------------|------------12--9-|-------------12-|
D-12-|----------------|---------------|------------------|----------------|
A----|----------------|---------------|------------------|----------------|
E----|----------------|---------------|------------------|----------------|
e|----------------|---------------|------------------|----------------|
B|----------------|---------------|------------------|----------------|
G|-11--9----------|----9m-9~~-----|----9-11-12--11-9-|-----9m-9~~--11-|
D|---------12--10-|-9-------------|------------------|-10-------------|
A|----------------|---------------|------------------|----------------|
E|----------------|---------------|------------------|----------------|
e|----------------|---------------|------------------|--------12~~----|
B|----------------|---------------|------------------|----------------|
G|-----10-12--/13-|-12-10m10------|---10-12-13--12-10|-12-------------|
D|-12-------------|---------------|------------------|-----9m---------|
A|----------------|---------------|------------------|----------------|
E|----------------|---------------|------------------|----------------|
e|----------------|---------------|------------------|----------------|
B|----------------|-------------10|-12p10------------|-10~~-----------|
G|----9-11-12-11-9|-11---9-11-12--|-------12m12-11-12|----------------|
D|----------------|----12---------|------------------|----------------|
A|----------------|---------------|------------------|----------------|
E|----------------|---------------|------------------|----------------|
e|----------------|---------------|------------------|----------------|
B|----------------|---------------|------------------|----------------|
G|-12--11--9--12--|--10-----------|-9-------7--------|-5--------------|
D|----------------|-----------(10)|------------------|----------------|
A|----------------|---------------|------------------|----------------|
E|----------------|---------------|------------------|----------------|
Em and verse starts here
* it's pretty cool yeah! here is incredible for notation timing, so listen to CD
Please mail me if you have any suggestions, corrections, additions etc.




Ваше мнение



Капча