RIFF:
------------------------------------------
------------------------------------------
-----3---------------------5--3-----------
|-----5--3--5-3--3--5--5--3--5---5--3-----------------
|-----5--3--5------3--5--5--3--5----------------------
|--3--------------------------------------------------

------------------------------------------
------------------------------------------
------------------------------------------
-----3------------------------------------
|-----5--3--5-----3--5--5--3--1-----------------------
|--3--------------------------------------------------




Ваше мнение



Капча