KILL THE KING(Blackmore/Dio/Powell)
RIFF:
|---------------------------------
|---------------------------------
|---3-5-3---5-3-------------------
|-5-3-5-3-5-5-3-3-----------------
|-5-------5-----3-----------------
|---------------------------------
|-------------------------------
|-------------------------------
|----3-5-3---3---5--------------
|-5--3-5-3-5-3-3-5--------------
|-5--------5---3----------------
|-------------------------------




Ваше мнение



Капча