C#|--------------------------|
G#|--------------------------|
E |--------------------------|
B |--------------------------|
F#|--------2---2~1---1~0---0-|
C#|0-2-3-5---3-----2-----1---|

Riff 2
C#|--------------------------|
G#|--------------------------|
E |--------------------------|
B |--------------------------|
F#|--------2---2~3---3~2-----|
C#|0-2-3-5---3-----4---------|

Riff 3
C#|--------------------------|
G#|--------------------------|
E |--------------------------|
B |--------------2-0-------0-|
F#|--------2---2-----2---2---|
C#|0-2-3-5---3---------3-----|

Riff 4
C#|--------------------------|
G#|--------------------------|
E |--------------------------|
B |--------2---2~1---1~0---0-|
F#|0-2-3-5---3-----2-----1---|
C#|--------------------------|




Ваше мнение



Капча