Author/Artist: Rage
Title: Vanished in haze
Album: Ghosts
Transcribed by: Sven Marklund
Email: [email protected]

Tune down a step to D

I love this album!! The solo is not correct but it sounds good.

Intro:
------------------------------------------------------------------------------
---------15--13--12---------15--13--12---------15--13--12---------------------
-12------------------11-----------------12-------------------11---------------
------------------------------------------------------------------------------
------------------------------------------------------------------------------
------------------------------------------------------------------------------

Verse:
------------------------------------------------------------------------------
----------3---------------3-----------------3-----------------3---------------
-------0----0----------4-----4-----------4-----4-----------0-----0------------
----0---------0-----4-----------4-----4-----------4-----2-----------2---------
-----------------2-----------------2-----------------3------------------------
-3----------------------------------------------------------------------------

Verse end:
----------2--0--------2---
-------3--------3-----3---
----4-----------------4---
-4--------------------4---
----------------------2---
--------------------------


Chorus:
------------------------------------------------------------------------------
------------------------------------------------------------------------------
---------4-------5-------2---------------4-------5----------------------------
-5-------4-------3-------2-------5-------4-------3----------------------------
-5-------2-------3-------0-------5-------2-------3----------------------------
-3-------------------------------3--------------------------------------------


Verse ending 2:
---------2--3--5--7--8--10--22------------------------------------------------
-3---5------------------------------------------------------------------------
------------------------------------------------------------------------------
------------------------------------------------------------------------------
------------------------------------------------------------------------------
------------------------------------------------------------------------------

Chorus 2:
------------------------------------------------------------------------------
------------------------------------------------------------------------------
---------4-------5-------2---2--4--5----------4-------5-----------------------
-5-------4-------3-------2---2--4--5--5-------4-------3-----------------------
-5-------2-------3-------0---0--2--3--5-------2-------3-----------------------
-3------------------------------------3---------------------------------------

Solo:
-15-----15--14--12--------------------------------------12--------------------
--------------------15--12----13--12----------15-------------15---------------
--------------------------------------14--12--------12------------------------
------------------------------------------------------------------------------
------------------------------------------------------------------------------
------------------------------------------------------------------------------


------------------------------------------------------------------------------
-13--12------------------------------13--12--15------13--12-----------12------
---------14--12--12----14--12----12--------------12----------14--12-------12--
------------------------------------------------------------------------------
------------------------------------------------------------------------------
------------------------------------------------------------------------------

End
------------------------------------------------------------------------------
------------------------------------------------------------------------------
-----7---7--6---6--5---5--6-5-6-----------------------------------------------
-----7---7--6---6--5---5--6-5-6-----------------------------------------------
-----5-5-5--4-4-4--3-3-3--4-3-4-----------------------------------------------
------------------------------------------------------------------------------

Song order:
Intro w Verse 1x
Verse 2x
Verse end 1x
Verse 2x
Verse end 1x
Chorus 1x

Intro w Verse 1x
Verse 2x
Verse end 2 1x
Chorus 1x
Chorus 2 1x
Solo w Verse 1x
Verse 2x
Verse end 2 1x
Chorus 2 2x
End Fade out




Ваше мнение



Капча