Title: Turn the page
Band: Rage
Album: XIII
Transcribed by Franck Hetroy ([email protected])
A guitar tab for this song was made by Pierluigi Abbondanza ([email protected])
Intro:
-----
G||-------------------------|-------------------------|-------------------------|
D||-------------------2-3-2-|-------------------2-3-2-|-------2-3-2-------0-----|
A||-----------3-----3-------|-----------3-----3-------|-1---1-----------1---3-1-|
E||-1---4/5-3---5-----------|-1---4/5-3---5-----------|-------------3-----------|
G|-------------------------|---------------------9/(16)-|
D|-------2-3-2-------0-----|----------------------------|
A|-1---1-----------1---3-1-|-----------3----------------|
E|-------------3-----------|-1---4/5-3---5--------------|
First verse:
-----------
G|-------------------------------|-------------------------------|-------------------------------|
D|-------------------------------|-------------------------------|-------------------------------|
A|-0-----------------------0-----|-0-----------------------0-----|-0----------0-3----------0-----|
E|-----3---1-------1-------------|-----3---1-------1-------------|-----3---1-------1---------1---|
G|-------------------------------|-------------------------------|-------------------------------|
D|-------------------------------|-------------------------------|-------------------------------|
A|-0-3-----0-------0---0-3---0---|-0-----------------------0-----|-0-----------------------0-----|
E|-----------1-------1---------1-|-----3---1-------1-------------|-----3---1-------1-------------|
G|-------------------------------|-------------------------------|-----------------|
D|-------------------------------|-------------------------------|---0---2---3---5-|
A|-0----------0-3----------0-----|-0-3-----0-------0---0-3---0---|-0---0---0---0---|
E|-----3---1-------1---------1---|-----------1-------1---------1-|-----------------|
Chorus:
------
G|-------|-----------------|-----------------|-----------------|-----------------|-----------------|
D|-------|-----------------|-----------------|-----------------|-----------------|-----------------|
A|-----0-|-1-1-1-1-1-1-1-1-|-0-0-0-0---------|-3-3-3-3-3-3-3-3-|-3-3-3-3-3-3-3-3-|-1-1-1-1-1-1-1-1-|
E|-3-----|-----------------|---------3-3-3-3-|-----------------|-----------------|-----------------|
G|-----------------|-----------------|-----------------|-----------------|-----------------|
D|-0-0-0-0-0-0-0-0-|---------0-3-0---|-0-0-0-0-0-0-0-0-|-----------------|-----------------|
A|-----------------|-3-3-3-3-------3-|-----------------|-1-1-1-1-1-1-1-1-|-0-0-0-0---------|
E|-----------------|-----------------|-----------------|-----------------|---------3-3-3-3-|
G|-----------------|-----------------|-----------------|-----------------|-----------------|
D|-----------------|-----------------|-----------------|-0-0-0-0-0-0-0-0-|-----------------|
A|-3-3-3-3-3-3-3-3-|-3-3-3-3-3-3-3-3-|-1-1-1-1-1-1-1-1-|-----------------|-3-3-3-3-3-3-3-3-|
E|-----------------|-----------------|-----------------|-----------------|-----------------|
There may be some little variations ...
During the first guitar solo (same thing during the second guitar solo):
----------------------------
G|-----------------|-------10---10h9----|-----------------|------------------------------|
D|-----------------|-5-7-8-----------10-|-----------------|------------------------------|
A|-----------------|--------------------|-----------------|-8-10-12---12-10-12---12-10-8-|
E|-3-3-3-3-3-3-3-3-|--------------------|-3-3-3-3-3-3-3-3-|------------------------------|
G|-----------------|-------10---10h9----|-----------------|------------------------------|
D|-----------------|-5-7-8-----------10-|-----------------|------------------------------|
A|-3-3-3-3-3-3-3-3-|--------------------|-----------------|------------------------------|
E|-----------------|--------------------|-3-3-3-3-3-3-3-3-|-/(12)(9)--------------------|
Second verse: same as the first one
------------
Bridge:
------
G|-----------------|-----------------|-----------------|-----------------|-----------------|
D|-----------------|-----------------|-----------------|-----------------|-----------------|
A|-3-3-3-3-3-3-3-3-|-5-5-5-5-5-5-5-5-|-3-3-3-3-3-3-3-3-|-5-5-5-5-5-5-5-5-|-----------------|
E|-----------------|-----------------|-----------------|-----------------|-3-3-3-3-3-3-3-3-|
G|-----------------|-----------------|-----------------|
D|-----------------|-----------------|-----------------|
A|-----------------|-----------------|-3-3-3-3-3-3-3-3-|
E|-5-5-5-5-5-5-5-5-|-3-3-3-3-3-3-3-3-|-----------------|
During the third guitar solo:
----------------------------
G|-----------------|-----------------|-----------------|-----------------|-----------------|
D|-----------------|-----------------|-----------------|-----------------|-----------------|
A|-1-1-1-1-1-1-1-1-|-0-0-0-0---------|-3-3-3-3-3-3-3-3-|-3-3-3-3-3-3-3-3-|-1-1-1-1-1-1-1-1-|
E|-----------------|---------3-3-3-3-|-----------------|-----------------|-----------------|
G|-----------------|-----------------|-----------------|-----------------|-0-0-0-0-0-0-0-0-|
D|-0-0-0-0-0-0-0-0-|-----------------|-0-0-0-0-0-0-0-0-|-3-3-3-3-3-3-3-3-|-----------------|
A|-----------------|-3-3-3-3-3-3-3-3-|-----------------|-----------------|-----------------|
E|-----------------|-----------------|-----------------|-----------------|-----------------|
G|-5-5-5-5-5-5-5-5-|-----------------|-----------------|-0-0-0-0-0-0-0-0-|-5-5-5-5-5-5-5-5-|
D|-----------------|-0-0-0-0-0-0-0-0-|-3-3-3-3-3-3-3-3-|-----------------|-----------------|
A|-----------------|-----------------|-----------------|-----------------|-----------------|
E|-----------------|-----------------|-----------------|-----------------|-----------------|
G|-----------------|
D|-0-0-0-0-0-0-0-0-|
A|-----------------|
E|-----------------|
Third verse:
-----------
G|-----------------|-----------------|-----------------|-----------------|-----------------|
D|-----------------|-----------------|-----------------|-----------------|-----------------|
A|-----------------|-----------------|-----------------|-0-0-0-0-0-0-0-0-|-----------------|
E|-----------------|-----------------|-1-1-1-1-1-1-1-1-|-----------------|-1-1-1-1-1-1-1-1-|
G|-----------------|-----------------|-----------------|-----------------|-----------------|
D|-----------------|-----------------|-----------------|-----------------|-----------------|
A|-0-0-0-0-0-0-0-0-|-----------------|-0-0-0-0-0-0-0-0-|-0-0-0-0-0-0-0-0-|-0-0-0-0-0-0-0-0-|
E|-----------------|-1-1-1-1-1-1-1-1-|-----------------|-----------------|-----------------|
G|-----------------|-----------------|-----------------|-----------------|-----------------|
D|-----------------|-----------------|-----------------|-----------------|-----------------|
A|-----------------|-0-0-0-0-0-0-0-0-|-----------------|-0-0-0-0-0-0-0-0-|-----------------|
E|-1-1-1-1-1-1-1-1-|-----------------|-1-1-1-1-1-1-1-1-|-----------------|-1-1-1-1-1-1-1-1-|
G|-----------------|-----------------|-----------------|
D|-----------------|-----------------|-----------------|
A|-0-0-0-0-0-0-0-0-|-0-0-0-0-0-0-0-0-|-0-0-0-0-0-0-0-0-|
E|-----------------|-----------------|-----------------|
Outro:
-----
G|-----------------|-----------------|-----------------|-----------------|-----------------|
D|-0-0-0-0-0-0-0-0-|-----------------|-0-0-0-0-0-0-0-0-|-----------------|-0-0-0-0-0-0-0-0-|
A|-----------------|-1-1-1-1-1-1-1-1-|-----------------|-3-3-3-3-3-3-3-3-|-----------------|
E|-----------------|-----------------|-----------------|-----------------|-----------------|
G|-----------------|-----------------|-----------------||
D|-----------------|-0-0-0-0-0-0-0-0-|-----------------||
A|-1-1-1-1-1-1-1-1-|-----------------|-3---------------||
E|-----------------|-----------------|-----------------||
SONG STRUCTURE:
--------------
Intro
Verse nr 1
Chorus
First guitar solo
Verse nr 2
Chorus
Second guitar solo (same as the first one)
Bridge
Third guitar solo
Verse nr 3
Chorus
Outro
Comments and suggestions are welcome:
-> please e-mail me: [email protected]




Ваше мнение



Капча