Band : Rage
Album : Trapped! (1992)
Song : Not Forever
Like every song of Rage, U've got to tune
your guitar 1/2 step down.
All this song is based on triplets, which make it not so easy to stay in the rythm!
x : Palm Muted
p : Pull
CLEAR SOUND PART :
~~~~~~~~~~~~~~~~~~~~~~~~~~~~~~~~~~~~~~~~~~~~~~~~~~~~~~~~~~~~~~~~~~~~~~~~~~~~
Used for INTRO and second VERSE
|------------------0--------------|
|----------------------------3----|
|*------------2---------2---------|
|*-------2------------------------|
|---0-----------------------------|
|---------------------------------|

-----------------0--------------|--------------------------------|
------------3---------3---------|-----------------0--------------|
-------5-------------------5----|------------2---------2----0----|
--3-----------------------------|-------2------------------------|
--------------------------------|--3-----------------------------|
--------------------------------|--------------------------------|
4x
-----------------0---------------||-----------------0--------------|
------------3---------3----------||---------------------------3----|
-------4-------------------4----*||------------2---------2---------|
--2-----------------------------*||-------2------------------------|
---------------------------------||--0-----------------------------|
---------------------------------||--------------------------------|

--------------------------------|-----------------1--------------|
-------1p---0---------0---------|------------3---------3---------|
---------------------------2----|-------2-------------------2----|
--2--------------2--------------|--0-----------------------------|
--------------------------------|--------------------------------|
--------------------------------|--------------------------------|

-----------------5--------------|-----------------0--------------|
------------3---------3---------|---------------------------3----|
-------2-------------------2----|------------2---------2---------|
--0-----------------------------|-------2------------------------|
--------------------------------|--0-----------------------------|
--------------------------------|--------------------------------|

--------------------------------|-----------------1--------------|
-------1h---0---------0---------|------------3---------3---------|
---------------------------2----|-------2-------------------2----|
--2--------------2--------------|--0-----------------------------|
--------------------------------|--------------------------------|
--------------------------------|--------------------------------|
C#5
--5----------------|
--3----------------|
--2----------------|
--0----------------|
-------------------|
-------------------|
END OF CLEAR SOUND PART :
~~~~~~~~~~~~~~~~~~~~~~~~~~~~~~~~~~~~~~~~~~~~~~~~~~~~~~~~~~~~~~~~~~~~~~~~~~~~
DISTORED SOUND PART
~~~~~~~~~~~~~~~~~~~~~~~~~~~~~~~~~~~~~~~~~~~~~~~~~~~~~~~~~~~~~~~~~~~~~~~~~~~~
INTRO
G#5 B5 A#5 F#5 4x G#5
D#||---------------------------|---------------------||-------------------|
A#||---------------------------|---------------------||-------------------|
F#||*--2------------------5----|--4-----------------*||--2----------------|
C#||*--2------------------5----|--4--------5--------*||--2----------------|
G#||---0--------x----x----3----|--2--------5---------||--0----------------|
D#||---------------------------|-----------3---------||-------------------|

VERSE
D#sus4 Bsus4
|---------------------------|--------------------------|
|---------------------------|--------------------------|
|*--------------------------|--5-----------------------|
|*--2-----------------------|--3-----------------------|
|---0--------x----x----x----|-----------x----x----x----|
|---------------------------|--------------------------|
F#sus4 G#5 2x
--------------------------|---------------------------||
--------------------------|---------------------------||
--------------------------|--2-----------------------*||
--5-----------------------|--2--------2~-------------*||
--3--------x----x----x----|--0-------------3~---2~----||
--------------------------|---------------------------||

BRIDGE
D#sus4 Bsus4 A#sus4 C#5
--------------------------|--------------------|--------------------------|
--------------------------|--------------------|--------------------------|
--------------------------|--5--------4--------|--2-----------------------|
--2-----------------------|--3--------2--------|--0-----------------------|
--0--------x----x----x----|--------------------|-----------x----x----x----|
--------------------------|--------------------|--------------------------|
F#5 D#sus4 Bsus4 A#sus4
--------------------------|--------------------------|--------------------|
--------------------------|--------------------------|--------------------|
--------------------------|--------------------------|--5--------4--------|
--5-----------------------|--2-----------------------|--3--------2--------|
--5-----------------------|--0--------x----x----x----|--------------------|
--3--------x----x----x----|--------------------------|--------------------|
C#5
--------------------------||-------------------|------------------|
--------------------------||-------------------|------------------|
--2-----------------------||*------------------|------------------|
--0-----------------------||*------------------|------------------|
-----------x----x----x----||-------------------|------------------|
--------------------------||-------------------|------------------|
CHORUS
G#5 E
--------------------------|--------------------------|
--------------------------|--------------------------|
--2-----------------------|--------------------------|
--2-----------------------|--3-----------------------|
--0--------x----x----x----|--3-----------------------|
--------------------------|--1--------x----x----x----|
F#5 B5 A#5 G#5
--------------------------|--------------------|--------------------------|
--------------------------|--------------------|--------------------------|
--------------------------|--5--------4--------|--2-----------------------|
--5-----------------------|--5--------4--------|--2-----------------------|
--5-----------------------|--3--------2--------|--0--------x----x----x----|
--3--------x----x----x----|--------------------|--------------------------|
E F#5
--------------------------|---------------------------||
--------------------------|---------------------------||
--------------------------|--------------------------*||
--3-----------------------|--5-----------------------*||
--3-----------------------|--5------------------------||
--1--------x----x----x----|--3--------x----x----x-----||
END OF DISTORED SOUND PART
~~~~~~~~~~~~~~~~~~~~~~~~~~~~~~~~~~~~~~~~~~~~~~~~~~~~~~~~~~~~~~~~~~~~~~~~~~~~
Feel free to send Your comments and questions.
Dark Aeons Ruler
[email protected]




Ваше мнение



Капча