Title: In vain (I won't go down)
Band: Rage
Album: XIII
Transcribed by Franck Hetroy ([email protected])
chorus:
||----------------|----------------|----------------|-----------|
||----------------|----------------|----------------|-----------|
||----------------|----------------|----------------|-----------|
||-----5---5-3---3|-4-5---5-3---4--|-5---5-3---3-4-5|---3---3---|
verse:
|----------|----------|----------|----------|----------|----------|----------|
|----------|----------|----------|----------|----------|----------|----------|
|----------|----------|----------|----------|----------|----------|----------|
|-0---2-0--|-2---2-0--|-5---5-3--|-5---5-3--|-5---3-5--|-5---5-3-4|-5---3-5--|
|----------|----------|-------|-----------------|-----------------|-----------------|-----------------|
|----------|----------|-------|-----------------|-----------------|-----------------|-5-5-3-5-3-4-5-3-|
|----------|----------|-------|-----------------|-----------------|-----------------|-----------------|
|-5---5-3--|-5---5-3--|-5---5-|-3-3-3-3-3-3-3-3-|-3-3-3-3-3-3-3-3-|-3-3-3-3-3-3-3-3-|-----------------|
bridge:
|------------|------------|------------|------------|-----------------|-----------------|-----------------|-----------------|
|------------|------------|------------|------------|-----------------|-----------------|-----------------|-----------------|
|------------|------------|------------|------------|-----------------|-----------------|-----------------|-----------------|
|-5--5--5--5-|-3--3--3--3-|-5--5--5--5-|-3--3--3--3-|-3-3-3-3-3-3-3-3-|-3-3-3-3-3-3-3-3-|-3-3-3-3-3-3-3-3-|-3-3-3-3-3-3-3-3-|
during the guitars solo:
|--------------------|--------------------|--------------------|--------------------|------|------------------------------|----------|
|--------------------|--------------------|--------------------|--------------------|------|------------------------------|----------|
|--------------------|--------------------|--------------------|--------------------|------|------------------------------|----------|
|-8--8-5--5-8--8-5--5|-5--5-3--3-5--5-3--3|-8--8-5--5-8--8-5--5|-5--5-3--3-5--5-3--5|-6-8--|-8--8-5--5-8--8-5--3-5--5-3--3|-2--------|
|----------|----------|----------|-----------------|-----------------|------------|--------------|--------------|--------------||
|----------|----------|----------|-----------------|-----------------|------------|--------------|--------------|--------------||
|----------|----------|----------|-----------------|-----------------|------------|--------------|--------------|--------------||
|-2--------|-2--------|-2--------|-2-2-2-2-2-2-2-2-|-2-2-2-2-2-2-2-2-|-3-2--2-3-2-|-2-3-2--2-3-2-|-2-3-2--2-3-2-|-2-3--------0-||
SONG STRUCTURE:
--------------
chorus (2 times)
verse
chorus (3 times)
verse
chorus (2 times)
bridge
guitars solo
orchestral part (nothing on bass)
Music by Peavy Wagner and Christian Wolff, lyrics by Peavy Wagner
Though I'm not sure of the end of the verse, this slow song is really easy to play, just take the rhythm !
Comments and suggestions are welcome:
-> please e-mail me: [email protected]




Ваше мнение



Капча