RAGE
« certain days »
From the almum « The missing link »
Transcribe by david MARCHAL
[email protected]
SONG -1/2 TUNE DOWN
intro: clear sound
|----------------------------------------------|
|----------------------------------------------|
|--------4----------4---------4----------------|
|-----2---------2----------2------------3------|
|------------2-----------3------------3--------|
|--0-------------------------------1-----------|


Рrй-riff (x4)
|------------------------------------------------------------------------------------|
|-------0-------------------3---------------------0------------------0---------------|
|----------------------4-----------------------------------------5-----------4-------|
|----------------------5-----------------------------------------5-----------5-------|
|--2----------------------------------------2----------------------------------------|
|--0----------------------------------------0----------------------------------------|
Riff 1
|-------------------------------------------------|
|-------------------------------------------------|
|---------------------------------------------o---|
|--------4--3--------------------------------o----|
|--------2--1---------5---------4---5--4----------|
|--0-0---------0-0---3- -0-0--2---3--2------------|

- Clear sound mйlоdiе (x8)
- Рrй riff (x1)
Riff 2
|--------------------------------------------------------------------------------------------|
|--------------------------------------------------------------------------------------------|
|-------------------------------------------------------------------------4--5-------4---59-|
|--- ------------------4--3-----3----3--2-------------------------------2--3-------2---37---|
|--2--------2--4--5--2--1-----1-0-1--0---5--4--2---------2--4--5-----------------------------|
|--0--0-0--0--2--3- ------------------------3--2--0--0-0--0--2---3---------------------------|
-Riff 1
-clear sound mйlоdiе
-рrй riff
-riff 2
Riff 3
|----------------------------------------------------------------------------|
|----------------------------------------------------------------------------|
|----------------------------------------------------------------------------|
|-------0---- ----0---------0---------0---------0--------0-----5---4-----59-|
|----2----2----2---2----0----0----0---0----0----0---0---0---3---2-----37----|
|--3---------3---------2------- -2---------1---------1-----------------------|
-Riff 1
SOLO
|---------------------------------------------------------------------|
|---------7^9^10---------------------- -------------------------------|
|----9b--------------------6^7^9^7^6^7^6----6-------------------------|
|--------------------------------------------- 9----9^7^6^7^6^7~~~--|
|---------------------------------------------------------------------|
|---------------------------------------------------------------------|

|----------2^4^5^4^2---2------------5^7^9^7^5---5------------------14^(16)^17^(16)^14---------------14---------------|
|-2^3^5---------------5------5^7^9---------------9-------14^15^17-------------- ------------17-15-15b------17-14-17b-|
|--------------------------------------------------------------------------------------------------------------------|
|--------------------------------------------------------------------------------------------------------------------|
|--------------------------------------------------------------------------------------------------------------------|
|--------------------------------------------------------------------------------------------------------------------|

|----------------------------------------------------------------------------------------------------|
|-----------------------------12^108^10^87^8^7----7-------------------------------------13b-r-12~~-|
|-------------------------------------------------------9-----9-7-9~~--------------------------------|
|------------------9-8~----------------------------------------------------------------9-10----------|
|----7---7-9-10---------------------------------------------------------7--7-9-10------------------|
|----------------------------------------------------------------------------------------------------|

|----------------------------7^8^10^8^7^8^7-----7----------------------------------------------------------------------14b-r-|
|-------------------------------------------------10---10^8^10^8---------------------------------------------13b-r-12--------|
|---------------------------------------------------------------------9^7^9~~------------------------------------------------|
|----------------9-8~-----------------------------------------------------------------------------9-10-----------------------|
|--7--7-9-10----------------------------------------------------------------------7---7-9-10-------------------------------|
|----------------------------------------------------------------------------------------------------------------------------|
-Riff 3
repeat and keep the note 4 times :
|-------------|
|-------------|
|-------------|
|-------------|
|--2----------|
|--0----------|
-Riff 3 again
-рrй-riff
-clear sound mйlоdiе




Ваше мнение



Капча