RAGE
- Back In Time -
>From the album 'GHOSTS'
Written by Peter 'Peavy' Wagner and Christian Wolff
Transcribed by Julien PUTIGNY ([email protected])
Tune down 1 step
- Intro -
Gtr 1 :
D -----17-15--------------------|
A --15-------17-18-15-17-14-15--|
F ------------------------------|
C ------------------------------|
G ------------------------------|
D ------------------------------|
Gtr 2 : (with reverb)
po po po po x4
|--------------------------5-------|
|--------5---------6-5-6-8---8-6-5-|
|--7-5-7---7-5-7-5-----------------|
|----------------------------------|
|----------------------------------|
|----------------------------------|
- 2nd part of Intro -
Then Lingua Mortis Orchestra plays :
x4
|--10------8----------------|
|------10-----8--8~~--10~~--|
|---------------------------|
|---------------------------|
|---------------------------|
|---------------------------|
While Gtr 2 plays :
h x4
|-------------------|
|-------------------|
|----7-----5--------|
|--7-----5----5-5-7-|
|-------------------|
|-------------------|
- Verse -

What's this scenery I can see it clearly

F5 (in the real tonality) let ring
|------------------3----------------------------3-----------
|------------------3----------------------------3-----------
|------------------3----------------------------3-----------
|--5-----------------------------5--------------------------
|--5-----------------------------5--------------------------
|--3-----------------------------3--------------------------


I'm the visionary It's the moment of my birth
pm..............
|-------------------3---------------------------3---------------|
|-------------------3---------------------------3---------------|
|-------------------3---------------------------3---------------|
|--5------------------------------------------------------------|
|--5---------------------5-5-5-5-5-5-5-5------------------------|
|--3---------------------3-3-3-3-3-3-3-3-------------------------|
then repeat 2nd part of Intro
repeat verse and then :
I wish that I could turn back time
|--5-3-5-6-5-3-3-3-3---3-5-3-------|
|--------------------6-------6-5-3-|
|----------------------------------|
|----------------------------------|
|----------------------------------|
|----------------------------------|

- Chorus -
Journey far beyond my memory
C(real tonality)G5 F5 C5
|-----------------------------------------------------------------
|-----------------------------------------------------------------
|-----------------------------------------------------------------
|-7-7-7-7-7-7-7-7---------------------------------7-7-7-7-7-7-7-7-
|-5-5-5-5-5-5-5-5-7-7-7-7-7-7-7-7-5-5-5-5-5-5-5-5-5-5-5-5-5-5-5-5-
|-----------------5-5-5-5-5-5-5-5-3-3-3-3-3-3-3-3-----------------
Driven back in time
D#5 A#5 F5 D#5 D5
-----------------------------------------------------------------
-----------------------------------------------------------------
-----------------------------------------------------------------
-----------------------------------------------------------------
--------------------5-5-5-5-5-5-5-5------------------------------
--3-3-3-3-3-3-3-3-3-3-3-3-3-3-3-3-3-5-5-5-5-5-5-5-5----3----2----
--1-1-1-1-1-1-1-1-1-----------------3-3-3-3-3-3-3-3----1----0----

Travel to my secret history
C5 G5 F5 C5
-----------------------------------------------------------------
-----------------------------------------------------------------
-----------------------------------------------------------------
-7-7-7-7-7-7-7-7---------------------------------7-7-7-7-7-7-7-7-
-5-5-5-5-5-5-5-5-7-7-7-7-7-7-7-7-5-5-5-5-5-5-5-5-5-5-5-5-5-5-5-5-
-----------------5-5-5-5-5-5-5-5-3-3-3-3-3-3-3-3-----------------
Driven back in time Driven back in time Driven back in time
D#5 A#5 p.s.F5 D#5 A#5 F5 D#5 A#5 F5
---------------------------------------------------------------|
---------------------------------------------------------------|
---------------------------------------------------------------|
--------5~~------------------5~~------------------5~~----------|
-3~~----3~~-----5~~---3~~----3~~-----5~~---3~~----3~~-----5~~--|
-1~~--------x--3~~---1~~------------3~~---1~~------------3~~--|
- Solo -
b 1s h
|-------------------------------------------------------------------
|-15(17)-15---------------------------------------------------------
|-----------14------------------------------------------------------
|---------------14-14-15-15-------14-14-----------14-14-15-14-------
|---------------------------15-15-------17-15-17--------------17-15-
|-------------------------------------------------------------------
h
---------------------------------------------------------------------------
---------------------------------------------------------------------------
--------------------------------------------------14----14-15-14-15-17-19~-
----14-14-15-14--------14----14-15-14-15-17-15-17----17--------------------
-17-------------17-15~----17-----------------------------------------------
---------------------------------------------------------------------------
b1/2s&r b1/2s&r
--------------------------------------------------------------------------
--------------------------------------------------------------------------
-19-0-21-0-22-0-21-0-19-0-21-0-22-0-21-0-21(22)-19----19-21(22)-19----19~-
---------------------------------------------------22--------------22-----
--------------------------------------------------------------------------
--------------------------------------------------------------------------
----------------------------------------------20----20-22~-
-------------------20----20-22-20-22-23-22-23----23--------
-21-19-21-22-21-22----22-----------------------------------
-----------------------------------------------------------
-----------------------------------------------------------
-----------------------------------------------------------
-5-3-5-6-5-3-3-3-3---3-5-3-------|
-------------------6-------6-5-3-|
---------------------------------|
---------------------------------|
---------------------------------|
---------------------------------|
repeat Chorus
Tablature Explanation :
pm.... : Palm Mute
p.s. : Pick Slide
h : Hammer
po : Pulling Off
b1s : Bend One Step
b1/2sr : Bend 1/2 Step an Release




Ваше мнение



Капча