Band : Rage
Album : Trapped! (1992)
Song : Baby, I'm your nightmare
Like every song of Rage, U've got to tune
your guitar 1/2 step down.
This one is quite simple as long as U are in the rythme.
h : hammer
p : pull
/ : side up
ah: Artific. Harmonic
~ : finger vib.
PM : Palm Mutting
INTRO
1st part :
|----------------|----------------|----------------|0---0-2---2-3|
|-------0--------|-------0--------|-------0--------|--0-----0----|
|--------0-------|--------0-------|--------0-------|-------------|
|------------4---|------------4---|------------4---|-------------|
|----------------|----------------|----------------|-------------|
|2---------------|2---------------|0---------------|-------------|
p h p h
|----------------|----------------|----------------|----------------|
|----------------|----------------|----------------|----------------|
|----------------|----------------|----------------|----------------|
|4---4-5-4-2-4---|4/5---4---2-----|2-0-2-0---0-----|-------------(2)|
|----------------|----------------|--------4---4-2-4-2--------------|
|----------------|----------------|----------------|----------------|
Intro solo :
p h p h
|----------------|----------------|----------------|----------------|
|----------------|----------------|----------------|----------------|
|----------------|----------------|----------------|----------------|
|2/4-4-5-4-2-4---|4/5-4-5/7-------|5-4-5-4-2-4-----|2-0-2-0---------|
|----------------|----------------|----------------|---------(4)----|
|----------------|----------------|----------------|----------------|
2nd part :
ah
|----------------|----------------|----------------|----------------|
|----------------|----------------|----------------|----------------|
|----/4----------|----/4----------|----/4----------|----------------|
|------5~---4~---|------5~---4~---|------5~---4~---|2---2-4---4-5---|
|----------------|----------------|----------------|--2-----2-------|
|2-2-------------|2-2-------------|0-0-------------|----------------|
|----------------|----------------|----------------| |----------------|
|----------------|3---------------|----------------| |----------------|
|----------------|2---------------|----------------| |----------------|
|----------------|2---------------|2---------------| |----------------|
|------2--3--2---|0---------------|2---------------| |------2---------|
|0-2-3-----------|----------------|0---------------| |0-2-3---2-------|

|----0-----------|----0-----------|
|0-----0---------|0-----0---------|
|--0-----0-------|--0-----0--0----|
|----------4-----|-------------4--|
|----------------|---------------2|
|----------------|----------------|
(listen carrefully for the rythme)
|----------------|----------------|----------------|----------------|
|----------------|----------------|----------------|----------888---|
|2-2--2(2)-4-4--4(4)-5-5--5(5)-4-4--4(4)-5-5--5(5)-7-7--7-7---777---|
|2-2--2(2)-4-4--4(4)-5-5--5(5)-4-4--4(4)-5-5--5(5)-7-7--7-7---777---|
|0-0--0(0)-2-2--2(2)-3-3--3(3)-2-2--2(2)-3-3--3(3)-5-5--5-5---555---|
|----------------|----------------|----------------|----------------|
CHORUS :
based on the last line of the intro's 2nd part.
Solo :
I won't describe it here, it's very simple, just play using this notes !
|12---13---15----|
|12---13---15----|
|12---14---------|
|12---14---15----|
|12---14---15----|
|12---13---15----|
PM
|------------|
|--------0---|
|------0---0-|
|4---4-------|
|--5---------|
|------------|
for the final chorus solo, just let your feeling speak!
and for the bass end solo ask to u'r bass player!
Feel free to send Your comments and questions.
Dark Aeons Ruler
[email protected]




Ваше мнение



Капча