From: Heikki Rita
Subject: Without a Face by Rage Against the Machine
Date: Tue, 16 Apr 1996 12:52:29 +0300 (EET DST)
Rage Against the Machine
Without a Face
**************
.
Riff A
------
harmonics
|-----------------------------|
|-----------------------------|
|-----------------------------|
|-555555-555555-555555-555555-|
|-----------------------------|
|-----------------------------|
.
Riff A (Bass)
-------------
.
|-----------------------------------|
|-2--------------3--------------2-0-|
|--------0---1---3------------------|
|-----------------------------------|
.
Riff B
------
w/wah
|--------------------------------|
|--------------------------------|
|--------------------------------|
|--------------------------------|
|--------------------------------|
|-3-1-3-1-3-1-3-1-3--------------|
.
Riff C
------
w/wah
|-----------------------------------------------|
|-----------------------------------------------|
|---------------------------------------3-------|
|-----------------------------------------------|
|---------------------------------------1-------|
|-3-1-3-1-3-1-3-1-3-1-3-1-3-1-3-1-1--3----------|
.
Riff D
------
|---------------------------------|
|---------------------------------|
|---------------------------------|
|---------------------------------|
|-5---3---5---3---5---3---5---3---|
|-3---1---3---1---3---1---3---1---|
.
by HeiKKi Rita




Ваше мнение



Капча