Wake Up-Ratm
RATM
Drop D:
D A D G B E
Intro: D5 fade in
(in the recording and live Tom twists his G string peg up and down
in order to get the sound, this is the way i play it, to compensate for both
guitar parts)
x4
e-----------------------------------------------------------------
b-----------------------------------------------------------------
g-7-7-7-7-----7-7-7-7-7---7-7-7-7-7-7-7-7-----7-7-7-7-7---7-7-7-7-
d-6-6-6-6-----6-6-6-6-6---6-6-6-6-7-7-7-7-----7-7-7-7-7---7-7-7-7-
a-5-5-5-5-----5-5-5-5-5---5-5-5-5-5-5-5-5-----5-5-5-5-5---5-5-5-5-
d-----------------------------------------------------------------
then
e-----------------------------------------------------------------
b---------------------------------5-------------------------------
g---------------------------------0-------------------------------
d-0-------------------------------8-------------------------------
a-0---------------------------------------------------------------
d-0---------------------------------------------------------------
e---------------------------------10--10--10--10--10--10---10-----
b---------------------------------13b-13b-13b-13b-13b-13b--13b----
g-------------------------------------12b-12b---------12b--12b----
d-0---------------------------------------------------------------
a-0---------------------------------------------------------------
d-0---------------------------------------------------------------
Main Riff:
e-----------------------------------------------------------------
b-----------------------------------------------------------------
g-----------------------------------------------------------------
d-----------------------------------------------------------------
a---------3~~~--2h3---3h5---3-2-----------3~~~--2h3---3h5---3-2---
d-0---0-0-----0-----0-3h5-0-3-2---0---0-0-----0-----0-3h5-0-3-2---
e-----------------------------------------------------------------
b-----------------------------------------------------------------
g-----------------------------------------------------------------
d-----------------------------------------------------------------
a---------3~~~--2h3---3h5---3-2-----------3~~~--5h7---7h8---8-10--
d-0---0-0-----0-----0-3h5-0-3-2---0---0-0-----0-----0-----0-------
e-----------------------------------------------------------------
b-----------------------------------------------------------------
g-----------------------------------------------------------------
d-----------------------------------------------------------------
a---------3~~~--2h3---3h5---3-2-----------3~~~--2h3---3h5---3-2---
d-0---0-0-----0-----0-3h5-0-3-2---0---0-0-----0-----0-3h5-0-3-2---
1st time:
e-----------------------------------------------------------------
b-----------------------------------------------------------------
g-----------------------------------------19-19-19-19-19-19-19-19-
d------------------------------------------x--x--x--x--x--x--x--x-
a---------3~~~--2h3---3h5---3-2-----------17-17-17-17-17-17-17-17-
d-0---0-0-----0-----0-3h5-0-3-2---0---0-0-------------------------
2nd time:
e-----------------------------------------------------------------
b--------------------------------------------------------18-------
g--------------------------------------------------17-------------
d--------------------------------------------16-------------------
a---------3~~~--2h3---3h5---3-2--------17-------------------------
d-0---0-0-----0-----0-3h5-0-3-2---0-------------------------------
Verse 1:
x3
e-----------------------------------------------------------------
b-----------------------------------------------------------------
g-----------------------------------------------------------------
d---------3-----x-5-----------------------3-----x-5---------------
a-3h5---x---5-------3---3-----4---3h5---x---5-------3---3-----4---
d-----------------------------------------------------------------
e-----------------------------------------------------------------
b-----------------------------------------------------------------
g-----------------------------------------------------------------
d---------3-----x-5-----------------------------------------------
a-3h5---x---5-------3---3-----4---3h5-----------------------------
d-----------------------------------------------------------------
e-----------------------------------------------------------------
b-----------------------------------------------------------------
g-----------------------------------------------------------------
d---------3-----x-5-----------------------3-----x-5---------------
a-3h5---x---5-------3---3-----4---3h5---x---5-------3---3-----4---
d-----------------------------------------------------------------
e-----------------------------------------------------------------
b-----------------------------------------------------------------
g-----------------------------------10---10---10---10---10---10--
d---------3-----x-5-----------------10---10---10---10---10---10--
a-3h5---x---5-------3---3-----4---5-------------------------------
d-----------------------------------------------------------------
e-----------------------------------------------------------------
b-----------------------------------------------------------------
g-----------------------------------------------------------------
d---------3-----x-5-----------------------3-----x-5---------------
a-3h5---x---5-------3---3-----4---3h5---x---5-------3---3-----4---
d-----------------------------------------------------------------
e-----------------------------------------------------------------
b-----------------------------------------------------------------
g-----------------------------------------------------------------
d---------3-----x-5-----------------------------------------------
a-3h5---x---5-------3---3-----4---3h5-----------------------------
d-----------------------------------------------------------------
Verse 2:
e-----------------------------------------------------------------
b-----------------------------------------------------------------
g-----------------------------------------------------------------
d---------3-----x-5-----------------------3-----x-5---------------
a-3h5---x---5-------3---3-----4---3h5---x---5-------3---3-----4---
d-----------------------------------------------------------------
e-----------------------------------------------------------------
b-----------------------------------------------------------------
g-----------------------------------------------------------------
d---------3-----x-5---------------------3-3h5---5-5-6---3-3-5-----
a-3h5---x---5-------3---3-----4---3h5-------------------------3---
d-----------------------------------------------------------------
e-----------------------------------------------------------------
b-----------------------------------------------------------------
g-----------------------------------------------------------------
d---------3-----x-5-----------------------3-----x-5---------------
a-3h5---x---5-------3---3-----4---3h5---x---5-------3---3-----4---
d-----------------------------------------------------------------
e-----------------------------------------------------------------
b-----------------------------------------------------------------
g-----------------------------------------------------------------
d---------3-----x-5-----------------------------------------------
a-3h5---x---5-------3---3-----4---3h5-----------------------------
d-----------------------------------------------------------------
e-----------------------------------------------------------------
b-----------------------------------------------------------------
g-----------------------------------------------------------------
d---------3-----x-5-----------------------3-----x-5---------------
a-3h5---x---5-------3---3-----4---3h5---x---5-------3---3-----4---
d-----------------------------------------------------------------
e-----------------------------------------------------------------
b-----------------------------------------------------------------
g-----------------------------------5-----5-----5-----5-----5-----
d---------3-----x-5--------------7-----7-----7-----6-----6-----7-
a-3h5---x---5-------3---3-----4-----------------------------------
d-----------------------------------------------------------------
e-----------------------------------------------------------------
b-----------------------------------------------------------------
g-----------------------------------------------------------------
d---------3-----x-5-----------------------3-----x-5---------------
a-3h5---x---5-------3---3-----4---3h5---x---5-------3---3-----4---
d-----------------------------------------------------------------
e-----------------------------------------------------------------
b-----------------------------------------------------------------
g-----------------------------------------------------------------
d---------3-----x-5-----------------------------------------------
a-3h5---x---5-------3---3-----4---3h5-----------------------------
d-----------------------------------------------------------------
Solo:
gtr. 1 w/ octaver and toggle switch
e-----------------------------------------------------------------
b-----------------------------------------------------------------
g-----------------------------------------------------------------
d---------------------------------5-5-5---------------------------
a-5-5-5-5-5-5-5-5-5-5-5-5-7-7-8-8-------8-8-8-7-7-7-3-3-3-3-3-3-3-
d-----------------------------------------------------------------
gtr. 2
e-----------------------------------------------------------------
b-----------------------------------------------------------------
g-----------------------------------------------------------------
d-0-------------------------------5-------------------------------
a-0-------------------------------3-------------------------------
d-0-------------------------------5-------------------------------
gtr. 1
e-----------------------------------------------------------------
b-----------------------------------------------------------------
g-----------------------------------------------------------------
d-----------------------5-----------------------------------------
a-3-3-3-3-3-3-3-3-3-3-3---7-7-8-8-5-5-5-5-5-5-5-5-5-5-5-5-5-5-5-5-
d-----------------------------------------------------------------
gtr. 2
e-----------------------------------------------------------------
b-----------------------------------------------------------------
g-----------------------------------------------------------------
d-3-------------------------------0-------------------------------
a-3-------------------------------0-------------------------------
d-3-------------------------------0-------------------------------
gtr. 1
e-----------------------------------------------------------------
b-----------------------------------------------------------------
g-----------------------------------------------------------------
d---------------------------------5-5-5---------------------------
a-5-5-5-5-5-5-5-5-5-5-5-5-7-7-8-8-------8-8-8-7-7-7-3-3-3-3-3-3-3-
d-----------------------------------------------------------------
gtr. 2
e-----------------------------------------------------------------
b-----------------------------------------------------------------
g-----------------------------------------------------------------
d-0-------------------------------5-------------------------------
a-0-------------------------------3-------------------------------
d-0-------------------------------5-------------------------------
gtr. 1
e-----------------------------------------------------------------
b-----------------------------------------------------------------
g-----------------------------------------------------------------
d-----------------------5-----------------------------------------
a-3-3-3-3-3-3-3-3-3-3-3---7-7-8-8-5-5-5-5-5-5-5-5-5-5-5-5-5-5-5-5-
d-----------------------------------------------------------------
gtr. 2
e-----------------------------------------------------------------
b-----------------------------------------------------------------
g-----------------------------------------------------------------
d-3-------------------------------0-------------------------------
a-3-------------------------------0-----------------6-5-3-5-0-3-5-
d-3-------------------------------0-----------------6-5-3-5-0-3-5-
after solo:
e-----------------------------------------------------------------
b-----------------------------------------------------------------
g-----------------------------------------------------------------
d-0-------------------------------3-------------------------------
a-0-----------------6-5-3-5-0-3-5-3-----------------6-5-3-5-0-3-5-
d-0-----------------6-5-3-5-0-3-5-3-----------------6-5-3-5-0-3-5-
e----------------------------------
b----------------------------------
g----------------------------------
d----------------------------------
a-0-----------------6-5-3-5-0-3-5--
d-0-----------------6-5-3-5-0-3-5--
6/4 time (just this bar)
e-------------------------------------------------------
b-------------------------------------------------------
g-------------------------------------------------------
d-------------------------------------------------------
a----0-6-5-3-5-0-3-5----6-5-3-5-0-3-5----6-5-3-5-0-3-5--
d----0-6-5-3-5-0-3-5----6-5-3-5-0-3-5----6-5-3-5-0-3-5--
x2
e-----------------------------------------------------------------
b-----------------------------------------------------------------
g-----------------------------------------------------------------
d-----------------------------------------------------------------
a-0-6-5-3-5-0-3-5-0-6-5-3-5-0-3-5-0-6-5-3-5-0-3-5-0-6-5-3-5-0-3-5-
d-0-6-5-3-5-0-3-5-0-6-5-3-5-0-3-5-0-6-5-3-5-0-3-5-0-6-5-3-5-0-3-5-
x2 pm
e-----------------------------------------------------------------
b-----------------------------------------------------------------
g-----------------------------------------------------------------
d-----------------------------------------------------------------
a-5-5-5-5-----5-5-5-5-5---5-5-5-5-5-5-5-5-----5-5-5-5-5---5-5-5-5-
d-----------------------------------------------------------------
x2 gradually release pm
e-----------------------------------------------------------------
b-----------------------------------------------------------------
g-----------------------------------------------------------------
d-----------------------------------------------------------------
a-----------------------------------------------------------------
d-0-0-0-0-----0-0-0-0-0---0-0-0-0-0-0-0-0-----0-0-0-0-0---0-0-0-0-
Outro Solo: a bunch of noises i couldnt tab
that’s all
trevor jones
[email protected]




Ваше мнение



Капча