-------------------------------------------------------------------------------
Voice of the Voiceless - rage againts the machine
-------------------------------------------------------------------------------

Tabbed by: Chris Vince
Email: [email protected]

Tuning: Drop D (DADGBE)

This is the basic riff played as a chorus. There is another guitar bit played
by Tom as the intro and the verse but its played with a weird effect. I have
worked this out without any help from other tabs which i feel is quite good!
Tell me what you think! Tom's Riffs Rock!

e|---------------------------------------------------------------------------|
B|---------------------------------------------------------------------------|
G|---------------------------------------------------------------------------|
D|---------------------------------------------------------------------------|
A|-5-3-5--3-0-3--------------------------------------------------------------|
D|---------------5-3-5--3-0-3-5----------------------------------------------|

(Main Riff)
e|---------------------------------------------------------------------------|
B|---------------------------------------------------------------------------|
G|---------------------------------------------------------------------------|
D|-----3-------------------3-------5-3----(repeat x4)------------------------|
A|-3-5---5-3-5-3h5-5---3-5---5-3-5-----5-------------------------------------|
D|---------------------------------------------------------------------------|

e|---------------------------------------------------------------------------|
B|---------------------------------------------------------------------------|
G|---------------------------------------------------------------------------|
D|---------------------------------------------------------------------------|
A|-5-3-5--3-0-3--------------------------------------------------------------|
D|---------------5-3-5--3-0-3-5----------------------------------------------|




Ваше мнение



Капча