Tire Me by Rage Against The Machine
tabbed by r.allen.canterbury
Dropped D tuning (D,A,D,G)
*Distortion used on bass throughout.
Verse Riff harm.
G:-----------------------------------------------------------|
D:-----------------------------------------------------------|
A:----------------------------1-2--------------------------1-2--|
D:--3p0-0-3p0-0-3-r-3p0-0-3-5-----3p0-0-3p0-0----3p0-0-3-5------|
harm.
G:----------------------------------------------------------|
D:-----------------------------------------------(ring)-----|
A:----------------------------1-2------------------------------|
D:--3p0-0-3p0-0-3-r-3p0-0-3-5-----3p0-0-3p0-0------------------|

Chorus Riff (x4)
G:-------------------|-----------------------------------|-------------|
D:--Verse-Riff-(x2)--|*---------------------------------*|-------------|
A:-------------------|*---5-8---5-8---5-8---5-8----3----*|-------------|
D:-------------------|--0-----0-----0-----0-----0--3-----|--0----(0)---|
G:-------------------|------------------------------|--------------------|
D:--Verse-Riff-(x2)--|------------------------------|--Chorus-Riff-(x4)--|
A:-------------------|------------------------------|--------------------|
D:-------------------|--0------0------0------0------|--------------------|

harm. (x2)
G:---------------------------------------------------------|
D:*--------------------------------------------(ring)-----*|
A:*----------------------------------------------------------*|
D:--3p0-0-3p0-0-3--rest----------3p0-0-3p0-0------------------|
(x4)
G:-------------------------------|
D:*-----------------------------*|
A:*-----------------------------*|
D:--3p0-0-3p0-0-3--rest----------|
G:--------------------------------------------------------------------------|
D:--------------------------------------------------------------------------|
A:--------------------------------------------------------------------------|
D:--0-0-0-0---0-0-0---0-0-0---0-0-0---0-0-0---0-0-0---0-0-0---0-0-0---0-0-0-|
G:----------------------------------------------------------------|
D:----------------------------------------------------------------|
A:----------------------------------------------------------------|
D:-0-0-0---0-0-0---0-0-0---0-0-0---0-0-0---0-0-0---0-0-0-0-0-0-0--|
G:---------------------|--------------|---------------|------------------|
D:-Rest.---------------|--Verse-(x2)--|--Chorus-(x2)--|------------------|
A:---------------------|--------------|---------------|--rest---------3--|
D:---------------------|--------------|---------------|------------0--3--|
I wanna be Jacki...
G:---------------|-------||
D:--Chorus-(x8)--|-------||
A:---------------|-(3)--||
D:---------------|-(3)--||

/----------------------------------------
| ____ ____ |
| ( `--' .-' _T_T_T_T_ |
| |8| O O |||||||||||||||||||[o o o o/ |
| (__,--.____ `~~~`--' |
| from the desk of jaco pastorius.. |
| [email protected] |
| http://www.vt.edu:10021/A/acanterb/ |
----------------------------------------/




Ваше мнение



Капча