The Ghost of Tom Joad
RAGE AGAINST TH MACHINE
Tabbed by Krsna Das Twigg ([email protected])
Drop D Tuning (D A D G B E)
E:----------------------------------|
B:----------------------------------|
G:----------------------------------|
A:----------------------------------|
E:--0-5--3--0-----------3-----0--3--|
D:--0----------5--3--0-----5--------|
PLAY ABOVE 4 TIMES
E:----------------------------------|
B:----------------------------------|
G:----------------------------------|
D:----------------------------------|
A:--0-------------------------------|
D:--0-------------------------------|
LET ABOVE RING 2 COUNTS OF 4
1ST VERSE (WEARWOLFS ALONG RAILD TRACKS...)
E:-----8'-----------------8'/98----| *LISTEN TO THE SONG
B:----------------------------------| TO FIGURE THIS PART
G:----------------------------------| OUT
D:----------------------------------|
A:----------------------------------|
D:----------------------------------|
PLAY ABOVE LAST 8 COUNTS OF VERSE
E:----------------------------------|
B:----------------------------------|
G:----------------------------------|
D:----------------------------------|
A:--0-5--3--0-----------3-----0--3--|
D:--0----------5--3--0-----5--------|
PLAY ABOVE 4 TIMES
E:----------------------------------|
B:----------------------------------|
G:----------------------------------|
D:----------------------------------|
A:--0-------------------------------|
D:--0-------------------------------|
LET ABOVE RING 4 COUNTS OF 4
E:------------------------|
B:--2/102/102/102------|
G:--2/102/102/102------|
D:------------------------|
A:------------------------|
D:------------------------|
PLAY ABOVE 4 TIMES
2ND VERSE (HE PULLS HIS BARE-FOOT OUT OF A PAPER BAG...)
E:---------------------------------------|
B:---------------------------------------|
G:---------------------------------------|
D:--12-10-12-10-12-10----------10-12-10--|
A:--------------------12-10-12-----------|
D:---------------------------------------|
PALY ABOVE 16 TIMES
E:----------------------------------|
B:----------------------------------|
G:----------------------------------|
D:----------------------------------|
A:--0-5--3--0-----------3-----0--3--|
D:--0----------5--3--0-----5--------|
PLAY ABOVE 4 TIMES
E:-----------------------|
B:--2/102/102/102-----|
G:--2/102/102/102-----|
D:-----------------------|
A:-----------------------|
D:-----------------------|
PLAY ABOVE 4 TIMES
3RD VERSE (WHERE EVER YA SEEN A COP BEAT'IN A GUY...)
E:-----------------------------------------|
B:-----------------------------------------|
G:-----------------------------------------|
D:--12-10-12-10-12-10------------10-12-10--|
A:---------------------12-10-12------------|
D:-----------------------------------------|
PLAY ABOVE 8 TIMES
E:-----8'----------------8'98------|
B:----------------------------------|
G:----------------------------------|
D:----------------------------------|
A:----------------------------------|
D:----------------------------------|
PLAY ABOVE 8 TIMES
E:----------------------------------|
B:----------------------------------|
G:----------------------------------|
D:----------------------------------|
A:--0-5--3--0-----------3-----0--3--|
D:--0----------5--3--0-----5--------|
PLAY ABOVE 10 TIMES
E:----------------|
B:----------------|
G:----------------|
D:----------------|
A:--0-------------|
D:--0-------------|
THAT'S IT
THANKS




Ваше мнение



Капча