its about 100% accurate
^=bend 1/2 step
*Wah-wah, slapback delay, whammy pedal and heavy reverb
|---------------------------------------------------------
|---------------------------------------------------------
|---------------------------------------------------------
|---------------------------------------------------------
|---------------------------------------------------------
|-0-0-0-0-0-0-0-0-0-0-0-0-0-0-0-0-0-0-0-0-0-0-0-0-0-0-0-0-
|-P.M-----------------------------------------------------|
*Digitech whammy pedal set for b7, slowly rock back and forth.
|----------------------------------------------------------
|-6-------------------------6----------------------12^-----
|-5-------------------------5----------------------12^-----
|-x-------------------------x------------------------------
|-5-------3-----5p3-x-0-----5-----0---10-0-5p3-x-0---------
|---3h5-0----0------x-0-5p3---3h5-0-7-10-0-----x-0---------
|-10-x-x-10-x-x-10-x-x-10-x-x-10-x-x-10-x-x-10-x-x-10-x-x--
|-x--x-x-x--x-x-x--x-x-x--x-x-x--x-x-x--x-x-x--x-x-x--x-x--
|-7--x-x-7--x-x-7--x-x-7--x-x-7--x-x-7--x-x-7--x-x-7--x-x--
|----------------------------------------------------------
|----------------------------------------------------------
|-------------------------------------------------------etc
Solo
+ o
|-----5-------5----5---5-xxx----5-----
|-6----------------------xxx----------
|-x-----------------------------------
|-x--------5-----5---5-------5-----5--
|-5-----------------------------------
|-------------------------------------
+ o
|-5-----5-5-----5---5--5------5----------
|-6--------------------------------------
|-x--------------------------------------
|-x---------x-5---5----------------------
|-5-----------------------x-5----x-------
|----------------------------------------
digitech xp100, patch:+=toe down, o+toe up
+ o
|-5-------5--5----5-----5--x-5----5----
|-6------------------------x-----------
|-x------------------------------------
|-x------------5-----5-------x-5-----5-
|-5------------------------------------
|--------------------------------------
+ o
|-5-------5----5----5----5----
|-6---------------------------
|-x---------------------------
|-x---------5----5----5----5--
|-5---------------------------
|-----------------------------
|--------------------------------
|--------------------------------
|--10--------5-------------------
|--10--------5-------------------
|--8---------3---------0---------
|----------------------0---------
|-----------------------------------
|-----------------------------------
|-----------------------------------
|--12^(12)-12^(12)-12^(12)-12^^(12)-
|--12^(12)-12^(12)-12^(12)-12^^(12)-
|--12^(12)-12^(12)-12^(12)-12^^(12)-
if u cant figure out the arrangement urself or have any general questionsm,
then e-mail me at: [email protected]




Ваше мнение



Капча