Date: Sun, 18 Jan 1998 17:35:38 +0000 (GMT)
From: Luis Robles
Subject: TAB:Take The Power Back by Rage Against The Machine

Take The Power Back
Rage Against The Machine
Album:Rage Against The Machine
written & arranged by Rage Against The Machine
and lyrics by Zack de la Rocha
tabbed by Luis Vicente Robles (BRASIL)

Drop D Tuning

Bass Intro
Guitar Intro
Part 1
Chorus
Part 2
Chorus
Solo
Part 3
Part 4
Part 5
Chorus
No more lies end part
End part 2

INTRO

Bass Play it 4X| Bass plays 4X |Guitar ends(4X)
e|-------------|------------------------------|----------------------|
B|-------------|------------------------------|----------------------|
G|-------------|------------------------------|----10----------------|
D|-------------|-------------3------------3---|----10----------------|
A|-------------|-------3/-5-----5---3/-5------|-----8----------------|
D|---0--0------|--0-0-------------------------|----------------------|

GUITAR INTRO,SOLO,PART 5
play this part 8 times
e|-------------------------------------------------------------------|
B|-------------------------------------------------------------------|
G|--7-7-7-7-7-7-7---5/--10-------------------------------------------|
D|--7-7-7-7-7-7-7---5/--10-------------------------------------------|
A|--5-5-5-5-5-5-5---3/---8-------------------------------------------|
D|-------------------------------------------------------------------|

PART 1, 2
play this part 15 times| Riff ends like this
e|-----------------------|-------------------------------------------|
B|-----------------------|-------------------------------------------|
G|--7-7-7-7-7-7-7---5----|--7-7-7-7-7--------------------------------|
D|--7-7-7-7-7-7-7---5----|--7-7-7-7-7--------------------------------|
A|--5-5-5-5-5-5-5---3----|--5-5-5-5-5--------------------------------|
D|-----------------------|-------------------------------------------|

Chorus
bend last chord 1 full step | Riff ends like this
e|---------------------------|---------------------------------------|
B|---------------------------|---------------------------------------|
G|--7--5/--12b---------------|---7--5--------------------------------|
D|--7--5/--12b---------------|---7--5--------------------------------|
A|--5--3/--10b---------------|---5--3--------------------------------|
D|---------------------------|---------------------------------------|

PART 3
1st guitar |2nd guitar plays it startin at the 3th time
Play this part 5 times | Play this part 2 times
e|-----------------------|-------------------------------------------|
B|-----------------------|-------------------------------------------|
G|--7--6--5--7--5--6-----|----7--9--10--12--12-----------------------|
D|--7--6--5--7--5--6-----|----7--9--10--12--12-----------------------|
A|--5--4--3--5--3--4-----|-------------------------------------------|
D|-----------------------|-------------------------------------------|

PART 4
e|----------|--------------------------------------------------------|
B|----------|--------------------------------------------------------|
G|---7--7---|--------------------------------------------------------|
D|---7--7---|--------------------------------------------------------|
A|---5--5---|--------------------------------------------------------|
D|----------|--------------------------------------------------------|

END PART
play this part 4 times ... No more lies...
e|-------------------------------------------------------------------|
B|-------------------------------------------------------------------|
G|---10/---9-9-9---10-10-10---12-12-12---10-10-10--------------------|
D|----x/---x-x-x----x--x--x----x--x--x----x--x--x--------------------|
A|----8/---7-7-7----8--8--8---10-10-10----8--8--8--------------------|
D|-------------------------------------------------------------------|

END PART 2
play this part 5 times | play this at last time
e|---------------------------------|---------------------------------|
B|---------------------------------|---------------------------------|
G|--7-6-5---7-6-5---7-6-5---5-5-5--|--7------------------------------|
D|--7-6-5---7-6-5---7-6-5---5-5-5--|--5------------------------------|
A|--5-4-3---5-4-3---5-4-3---3-3-3--|--5------------------------------|
D|---------------------------------|---------------------------------|

LYRICS
BASS INTRO
GUITAR INTRO

-PART 1
In the right light, study becomes insight
But the systems that dissed us
Teaches us to read and write
So-called facts are fraud
They want us to allege and pledge
And bow down to thier God
Lost the culture, the culture lost
Spun our minds and through time
Ignorance has taken over
We gotta take the power back
Bam! here's the plan
Mother fuck Uncle Sam
Step back, I know who I am
Raise up your ear, I'll drop the style and clear
It's the beats and lyrics they fear
The rage is relentless
We need a movement with a quickness
You are the witness of change
And to counteract
We gotta take the power back

-CHORUS
We gotta take the power back
We gotta take the power back

-PART 2
The present curriculums
I put my fist in 'em
Eurocentric every last on e of 'em
See right through the red, white and blue disguise
With lecture, I puncture the structure of lies
Installed in our minds and attempting
To hold us back
We've gotta take the power back
'Cause holes in our spirit are causin' tears and fears
One-sides stories for years and years and years
I'm inferior? Who's inferior?
Yea, we needa check the interior
Of the system who cares about only one culture
And that is why
We gotta take the power back

-CHORUS
-SOLO
-PART 3

-PART 4
The teacher stands in front of the class
But the lesson plan he can't recall
The student's eyes don't perceive the lies
Bouncing off every fucking wall
His composure is well kept
I guess he fears playing the fool
The complacent students sit and listen to the
Bullshit that he learned in school

-PART 5
Europe ain't my rope to swing on
Can't learn a thing from it
Yet we hang from it
Gotta get it, gotta get it together then
Like the mother fuckin' weathermen
To expose and close the doors on those who try
To strangle and mangle the truth
'Cause the circle of hatred continues unless we react
We gotta take the power back

-Chorus
-No more lies
-End part

Comments can be sent to :[email protected] - Luis robles, BRASIL


Ваше мнение



Капча