Take The Power Back-Ratm
RATM
Drop D:
D A D G B E
< > = harmonic
Intro: w/ muted picking and pick scrapes
fade in w/ vol. knob
e-----------------------------------------------------------------
b-----------------------------------------------------------------
g-----------------------------------------------------------------
d-11----------10------------9-----------8----------------------7-
a--9-----------8------------7-----------6-------------------------
d-----------------------------------------------------------------
Fig. 1
e-----------------------------------------------------------------
b-----------------------------------------------------------------
g-----------------------------------------------------------------
d---------------3-----------3-----------------3-----------3-------
a---------3h5-x---x-x-3h5-x-------------3h5-x---x-x-3h5-x---------
d-0---0-------------------------0---0-----------------------------
e-----------------------------------------------------------------
b-----------------------------------------------------------------
g-----------------------------------------------------------------
d---------------3-----------3-----------15-----------------------
a---------3h5-x---x-x-3h5-x-------------15-----------------------
d-0---0-------------------------0---0---15-----------------------
Verse: Fig. 2
e-----------------------------------------------------------------
b-----------------------------------------------------------------
g----7--7--7--7----x-x-x-5----------7--7--7--7----x-x-x-5---------
d----x--x--x--x----x-x-x-x----------x--x--x--x----x-x-x-x---------
a----5--5--5--5----x-x-x-3----------5--5--5--5----x-x-x-3---------
d-0---------------------------------------------------------------
e-----------------------------------------------------------------
b-----------------------------------------------------------------
g----7--7--7--7----x-x-x-5----------7-----------------------------
d----x--x--x--x----x-x-x-x----------x--15------------------------
a----5--5--5--5----x-x-x-3----------5--15------------------------
d--------------------------------------15------------------------
Chorus:
gtr. 2
e------------------------------------------------------------
b----------------------9b------------------------------------
g---10-----------------9b------------------------------------
d---10--------10---------------------------------------------
a---12--------10---------------------------------------------
d-0---------0------------------------------------------------
gtr. 1
e------------------------------------------------------------
b------------------------------------------------------------
g------------------------------------------------------------
d------------------------------------------------------------
a---5----------3---4---5----------x-x-x-x--x-x-x-x--x-x-x-x--
d-0---------0--------------0--0---x-x-x-x--x-x-x-x--x-x-x-x--
gtr. 2
e--------------------------------22-22-22-22----22-22-22-22--
b----------------------9b------------------------------------
g---10-----------------9b------------------------------------
d---10--------10---------------------------------------------
a---12--------10---------------------------------------------
d-0---------0--------------0--0------------------------------
gtr. 1
e------------------------------------------------------------
b------------------------------------------------------------
g------------------------------------------------------------
d------------------------------------------------------------
a---5----------3---4---5---------------12-------------------
d-0---------0--------------0--0--------12-------------------
gtr. 2
e------------------------------------------------------------
b----------------------9b------------------------------------
g---10-----------------9b------------------------------------
d---10--------10---------------------------------------------
a---12--------10---------------------------------------------
d-0---------0------------------------------------------------
gtr. 1
e------------------------------------------------------------
b------------------------------------------------------------
g------------------------------------------------------------
d------------------------------------------------------------
a---5----------3---4---5----------x-x-x-x----x---x----x-x-x--
d-0---------0--------------0--0---x-x-x-x----x---x----x-x-x--
gtr. 2
e------------------------------------------------------------
b------------------------------------------------------------
g---10-------------------------------------------------------
d---10---------10~~~~~~~~~~~~~~~~~~~~~~~~~~~~~~~~~~~~~~~-----
a---12-------------------------------------------------------
d-0---------0------------------------------------------------
gtr. 1
e------------------------------------------------------------
b------------------------------------------------------------
g------------------------------------------------------------
d------------------------------------------------------------
a---5-----------3~~~~~~~~~~~~~~~~~~~~~~~~~~~~~~~~~~~~~~~~----
d-0---------0------------------------------------------------
Verse 2:
e----------------------------------------------------
b----------------------------------------------------
g----7--7--7--7--7--7--5-------7--7--7--7--7--7--5---
d----x--x--x--x--x--x--x-------x--x--x--x--x--x--x---
a----5--5--5--5--5--5--3-------5--5--5--5--5--5--3---
d-0--------------------------------------------------
e----------------------------------------------------
b----------------------------------------------------
g----7--7--7--7--7--7--5--------7--------------------
d----x--x--x--x--x--x--x--------x---15--------------
a----5--5--5--5--5--5--3--------5---15--------------
d-----------------------------------15--------------
Fig. 2
Solo:
e-----------------------------------------------------------------
b-13b----13b~~~~-13b-13b---13b---13b~~~~-13b-13b---13b---13b~~~~~-
g-12b------------12b-12b-----------------12b-12b------------------
d-----------------------------------------------------------------
a-----------------------------------------------------------------
d-----------------------------------------------------------------
e---------------------------10------------------------10----------
b--13b--13b------10-13b~~~~----13-11-10~~~~~-10h11h13----13-11-10-
g--12b------------------------------------------------------------
d-----------------------------------------------------------------
a-----------------------------------------------------------------
d-----------------------------------------------------------------
e-----------------------------------------------------------------
b--------------------------------------------------------13h15h17-
g-12-10-9br----------12-14-12----------12h14-14h15h17-17----------
d-----------------14----------15-14h15----------------------------
a-----------------------------------------------------------------
d-----------------------------------------------------------------
e-13-15-17-----13-17-15-13-12-13p12----------------13-------------
b-----------------------------------15-13-15-13-15----15br~~13/15-
g----------/14----------------------------------------------------
d-----------------------------------------------------------------
a-----------------------------------------------------------------
d-----------------------------------------------------------------
e-------15-17-15----------15-17-15----------15-17-15--------------
b-17-18----------18-17-18----------18-17-18----------18-17-18-----
g-----------------------------------------------------------------
d-----------------------------------------------------------------
a-----------------------------------------------------------------
d-----------------------------------------------------------------
e-15-17-19b~~~-19-17-15-------------------------------------------
b-----------------------18-17--15----------15---------------------
g---------------------------------17-16-17----17-16---------------
d---------------------------------------------------19-17-16------
a------------------------------------------------------------17---
d-----------------------------------------------------------------
e-------------------------------------------17/21-19-17-----------------------
b----------------------------------17-15-13-------------18--------------------
g-------------------12-14/18-15-14-------------------------17-16h17p16~~~~----
d----------12-14-15-------------------------------------------------------x-x-
a-12-13-15--------------------------------------------------------------------
d-----------------------------------------------------------------------------
e-----------------------------------------------------------------
b-----------------------------------------------------------------
g-10--10--12------10--------------------------10-10---10-10h12-12-
d-10--10--12-12-x-10-x-x-10h12-x-x------------10-10---10-10h12-12-
a------------------------10h12-----8/10---------------------------
d---------------------------------------10h12---------------------
e-----------------------------------------------------------------
b-----------------------------------------------------------------
g-12------------------------10h12---12--10------------------------
d-12------------------------10h12---12--10---x-10--9--8--7---6-6--
a----------------------------------------9--8--7---6-6--
d-------------------------------------------------------------
e-----------------------------------------------------------------
b-----------------------------------------------------------------
g-21-21-21-21-21-21-----------------------------------------------
d-20-20-20-20-20-20-----------------------------------------------
a-----------------------------------------------------------------
d-----------------------------------------------------------------
breakdown:
e------------------------------------------------
b------------------------------------------------
g------------------------------------------------
d------------------------------------------------
a-5---4---3---3---5--3----5---4---3---3---5--3---
d-------------3---5-------------------3---5------
x2
e------------------------------------------------
b-3-----5-----6------8----8----------------------
g-5b----7b----8b----10b--10b~~~~-----------------
d------------------------------------------------
a------------------------------------------------
d------------------------------------------------
e------------------------------------------------
b------------------------------------------------
g------------------------------------------------
d------------------------------------------------
a-5---4---3---3---5--3----5---4---3---3---5--3---
d-------------3---5-------------------3---5------
Bridge:
e-----------------------------------------------------------------
b-----------------------------------------------------------------
g-7--7-------7--7---------7--7----------------------7--7----------
d-7--7-------7--7---------7--7----------------------7--7----------
a-5--5-------5--5---------5--5--x--x--x--x--x--x----5--5----------
d-0--0-------0--0---------0--0--x--x--x--x--x--x----0--0----------
e-----22-2222-----------------------------------------------------
b-----------------------------------------------------------------
g-7--7-------7--7---------7--7----------------------7--7----------
d-7--7-------7--7---------7--7----------------------7--7----------
a-5--5-------5--5---------5--5--x--x--x--x--x--x----5--5----------
d-0--0-------0--0---------0--0--x--x--x--x--x--x----0--0----------
Outro:
x4
e-----------------------------------------------------------------
b-----------------------------------------------------------------
g-----------------------------------------------------------------
d---2----2----2----3----3----3----5----5----5----3----3----3----3-
a-3----3----3----3----3----3----3----3----3----3----3----3----3---
d-----------------------------------------------------------------
x4
e-----------------------------------------------------
b-----------------------------------------------------
g-7-6-5-------7-6-5-------7-6-5-----5---5-5-5-5-5-6---
d-7-6-5---x-x-7-6-5---x-x-7-6-5---x-5---5-5-5-5-5-6---
a-5-4-3---x-x-5-4-3---x-x-5-4-3---x-3---3-3-3-3-3-4---
d-----------------------------------------------------
e-----------------------------------------------------
b-----------------------------------------------------
g-7-6-5-------7-6-5-------7-6-5-----5---5-5/75/75---
d-7-6-5---x-x-7-6-5---x-x-7-6-5---x-5---5-x-x-x-x-x---
a-5-4-3---x-x-5-4-3---x-x-5-4-3---x-3---3-3/53/53---
d-----------------------------------------------------
e-----------------------------------------------------------------
b----------------------------------------------------6-------6----
g-7-6-5-------7-6-5-------7-6-5-----5---5-5-5-5-5-6--5-------5---
d-7-6-5---x-x-7-6-5---x-x-7-6-5---x-5---5-5-5-5-5-6--7-------7---
a-5-4-3---x-x-5-4-3---x-x-5-4-3---x-3---3-3-3-3-3-4--5-------5---
d-----------------------------------------------------------------
that’s all
trevor jones
[email protected]




Ваше мнение



Капча