Rage Against the Machine
Snoop Bounce
Tabbed By Jesse
[email protected]
This is an easy song, just get the groove, fill when you feel it fits.
Drop D
intro
g-----------
d-----------
a-7-5-------
d-----7-5---
chorus
g----------------------------
d----------------------------
a----------------------------
d--2--0--2----2--0--2--(5)---
only play the (5) every few times
Verse
g-------------
d-------------
a-------------
d--0--2--5---7
Wash, rinse, Repeat. That's it, enjoy!




Ваше мнение



Капча