From: [email protected]
Date: Wed, 31 Jul 1996 18:25:23 -0400
Subject: TAB:Snakecharmer by Rage Against the Machine

"Snakecharmer" by Rage Against the Machine
transcribed by [email protected]

Intro
E -----13-----------------------------------------
B ----16b18---------------------------------------
G ------------------------------------------------
D ------------------------------------------------
A ------------------------------------------------
D -0----------------------------------------------

Verse
E ------------------------------------------------
B ------------------------------------------------
G ---12--------------------12---------------------
D ------------------------------------------------
A -0----10h12--10h12-----0----10h12-11-10---------
D -0----10h12--10h12-----0----10h12-11-10---------

harmonics
E ------------------------------------------------
B ------------------------------------------------
G ------------------------------------------------
D -12-12-12-12-12--10---9-9-----------------------
A -12-12-12-12-12--10---9-9-----------------------
D -12-12-12-12-12--10---9-9-----------------------

Chorus
E ------------------------------------------------
B ------------------------------------------------
G ------------------------------------------------
D ------------------------------------------------
A -0-0---5p3-0---7p5-0--12p10-0-------------------
D -0-0---5p3-0---7p5-0--12p10-0-------------------

E ------------------------------------------------
B ------------------------------------------------
G ------------------------------------------------
D ------------------------------------------------
A -0---12---12--12-10---5-3--0--------------------
D -0---12---12--12-10---5-3--0--------------------




Ваше мнение



Капча