Rage Against the Machine
Snakecharmer
Album: Evil Empire
Tablature: Guitar
Source: Metaltabs (http://www.metaltabs.com)
Transcribed By: unknown
--------------------------------------------------------------------------------
TUNING: drop d (D,A,D,G,B,E)
INTRO:
E|-----------------------|
B|-------18---------18---|
G|-------17---------17---|
D|-------16---------16---|
A|-------17---------17---|
D|--0----------0---------|
VERSE:
E|------------------------------------------------------------|
B|------------------------------------------------------------|
G|--------12---------------------------12---------------------|
D|---------------10--12--10--12---------------12--12--11--10--|
A|----------------x---x---x---x----------------x---x---x---x--|
D|--0--0------0--10--12--10--12--0--0------0--12--12--11--10--|
CHORUS:
E|------------------------------------------------------------|
B|------------------------------------------------------------|
G|--------12---------------------------12---------------------|
D|---------------10--12--10--12---------------12--12--11--10--|
A|---------------10--12--10--12---------------12--12--11--10--|
D|--0--0------0--10--12--10--12--0--0------0--12--12--11--10--|
INTERLUDE:
E|-----------------------------------------------------------------|
B|-----------------------------------------------------------------|
G|--14--14--14--14--14--12--------14--14--14--14--14--12-----------|
D|--12--12--12--12--12--10--------12--12--12--12--12--10-----------|
A|--12--12--12--12--12--10--x--x--12--12--12--12--12--10--x-x-x-x--|
D|--12--12--12--12--12--10--x--x--12--12--12--12--12--10--x-x-x-x--|
BRIDGE:
Play intro eight times
Then play this three times
E|--------------------------------------------|
B|--------------------------------------------|
G|--------------------------------------------|
D|--------------------------------------------|
A|----------------------------------5--3------|
D|--0----0----5--3--0----7--5--0----------3b--|
Then play this once
E|-------------------------------------------------|
B|-------------------------------------------------|
G|-------------------------------------------------|
D|-------------------------------------------------|
A|----------------------------------------------0--|
D|--0----/12------12------12--10------5--3------0--|
OUTRO:
E|--------------------------------------------|
B|--------------------------------------------|
G|--------------------------------------------|
D|--------------------------------------------|
A|----------------------------------5--3------|
D|--0----0----5--3--0----7--5--0----------3b--|




Ваше мнение



Капча