Guitarist:Tom Morello
Band:Rage Against the Machine
Song:Sleep Now in the Fire
Album:The Battle of Los Angeles
Tuning:(E-A-D-G-B-e)
b=bend (1/4 means bend 1/4 step up)
p=pull-off
v=vibrato (whammy bar)
Main Riff:
Distortion
e|---------------------------------------------------------------------
B|---------------------------------------------------7b8-7-5-7-5-------
G|---------5bј--------------5bј--------------5bј---5-7b8-7-5-7-5-------
D|-7-7-5-7-----7-7--7-7-5-7-----7-7--7-7-5-7-----7-5-7b8-7-5-7-5-7p5-7-
A|-0-0-0-0-----0-0--0-0-0-0-----0-0--0-0-0-0-----0-0---------0---0---0-
E|---------------------------------------------------------------------
Verse:
**
e|----------|
B|-------10-|
G|-------12-|
D|--7-------|
A|-10-------|
E|----------|
**Sounded by the Whammy Pedal in harmonizer mode (major second below).
Solo:
For the solo Tom Morello plays the open A-string many many times as he
uses the whammy bar (or tremolo bar) while receiving feedback from his
Peavey Amp.
e-------------------------------------------------------------------------------
B-------------------------------------------------------------------------------
G-------------------------------------------------------------------------------
D-------------------------------------------------------------------------------
A-0v-0v-0v-0v--0v-0v-0v--0v-0v-0v--0v-0v--0v--0v-0v--0v-0v-0v-0v-0v-0v-0v-0v-0v-
E-------------------------------------------------------------------------------

Song Structure:
Main Riff 4x
Verse 4x
Main Riff 2x
Verse 4x
Main Riff 2x
Drums Play
Main Riff 1x
Solo 1x
Main Riff 2x




Ваше мнение



Капча