Rage Against the Machine (Rage Against the Machine)
SETTLE FOR NOTHING (solo)
Good solo, and not very difficult
----------------
p= Pull off
h= Hammer on
b= Bend
~= Vibe
= Slide

E----14-12-10-----------------------------------------------------------------
B-------------14-12-10-----------------------------------12h14h15--15-14~~~---
G----------------------12-11----11~~~~~----------11h12h14---------------------
D----------------------------14----------11h12h14-----------------------------
A-----------------------------------------------------------------------------
D-----------------------------------------------------------------------------

E------------14--15--17-1719-----17--15--14----------------------------------
B----12h14h15--------------------------------15-------------------------------
G-----------------------------------------------14-------11-12-14-12-11-------
D--------------------------------------------------------11-------------14----
A-----------------------------------------------------------------------------
D-----------------------------------------------------------------------------
E-----------------------------------------------------------------don't pick--
B-------------------------------------12----14----12-------------last note----
G--11-11---11---11---11---12-11-12-11----11----11----11-------11-12-14b-14----
D-------------------------------------------------------------11--------------
A-----------------------------------------------------------------------------
D-----------------------------------------------------------------------------

12th fret 5th fret (harmonics)
E--X-------X----------------10-11-12-11-10------------------------------------
B---X-------X------------------------------12-11-10----11-10------------------
G----X-------X--------------------------------------12-------12-11-10---------
D-----X-------X-------------------------------------------------------12------
A------X-------X--------------------------------------------------------------
D-----------------------------------------------------------------------------
slower
E------------------------------------------------10-----------12-11-10--------
B---------------------------------------10-12-13----13-12-10----------12-11-10
G---11-10----------------------10-11-12---------------------------------------
D---------12-11-10----10-11-12------------------------------------------------
A------------------12---------------------------------------------------------
D-----------------------------------------------------------------------------
E-----------------------------------------------13-12-------------------------
B------11-10---------------------------12h14h15-------------12h14h15-15-14----
G----12-------12-11-10-9------------------------------------------------------
D-----------------------10-9~~~~~~~-------------------------------------------
A-----------------------------------------------------------------------------
D-----------------------------------------------------------------------------

E-----------------------------------------------------------------------------
B-----------------------------------------------------------------------------
G-------------11---11-11------------------------------------------------------
D----11h12h14-----------------------------------------------------------------
A-----------------------------------------------------------------------------
D-----------------------------------------------------------------------------




Ваше мнение



Капча