From: [email protected]
Date: Tue, 30 Jul 1996 20:11:27 -0400
Subject: TAB: Revolver by Rage Against the Machine
"Revolver" by Rage Against the Machine
transcribed by [email protected]
Riff #1
E -------------------------------------------------
B -------------------------------------------------
G -------------------------------------------------
D ---------------------3---------------------------
A -3h4-5-------3-5p3-5------3h4-5-------3-5p3------
D -------0-3-5--------------------0-3-5-------3-0--
Interlude
1/4 bend up crescendo
E -------------------------------------------------
B -------------------------------------------------
G -----5b6b5----7-7-7-7--------5-5-5-5-5-5-5-5-5-5-
D ------------7------------------------------------
A -------------------------------------------------
D -0-----------------------------------------------
Chorus
E -------------------------------------------------
B -------------------------------------------------
G -------------------------------------------------
D ---------3--------3--------3---------------------
A -----3h5------3h5------3h5------3h5-3------------
D -0-0--------0--------0--------0------------------
Solo
(played over Riff #1)
repeatedly
E -----------12b13--9b10--4b5-------16b17----------
B -9b10--------------------------------------------
G -------------------------------------------------
D -------------------------------------------------
A -------------------------------------------------
D -------------------------------------------------
Post-chorus chords
E -1------0----------------------------------------
B -0------3----------------------------------------
G -2------2----------------------------------------
D -0------0----------------------------------------
A -------------------------------------------------
D -------------------------------------------------




Ваше мнение



Капча