Renegades Of Funk
R A G E A G A I N S T T H E M A C H I N E
Tabbed By Aaron Bridgeman ([email protected])

http://bogans.arecool.net

New Rage single.

Drop D tuning (D A D G B e)

KEY
~ = sustain

here we go.

INTRO (Tom uses an effect here)
e|-12-8-12-8-12-8-12-8-13-10-13-10-13-10-13-10-|
B|---------------------------------------------|
G|---------------------------------------------|
D|---------------------------------------------|
A|---------------------------------------------|
D|---------------------------------------------|

VERSE
e|---------------------------------|
B|---------------------------------|
G|---------------------------------|
D|-5/7---5/7---5/7-----------------|
A|-3/5-0-3/5-0-3/5-0-3/5~~~--------|
D|-----0-----0-----0-3/5~~~--------|

CHORUS
e|-----3-5-8~~-3-----|
B|-3-6-----------3~~-|
G|-------------------|
D|-------------------|
A|-------------------|
D|-------------------|

ANOTHER BIT USED IN VERSE OR THEREABOUTS
e|-------|
B|-------|
G|-------| (repeated a few times)
D|-------|
A|-5/7~~-|
D|-5/7~~-|

BREAKDOWN
e|------------------------|
B|------------------------|
G|-4- bend this note -----|
D|--- up and down slowly -|
A|------------------------|
D|------------------------|

That'd be it. All the riffs you need.




Ваше мнение



Капча