t. See http://www.olga.net/faq/ for more information. #

Date: Wed, 1 Mar 2000 14:34:04 -0800 (PST)
From: david shirman
Subject: r/rage_against_the_machine/rage_against_the_machine.tab

Band: Rage Against The Machine
Album: Rage Against The Machine
Track: Know Your Enemy

Transcribed By: David Shirman
E-mail: [email protected]

=====================
Intro 1:Play x8 times
=====================
E||-------------------------------------------||
B||-------------------------------------------||
G||-11-9-11-9-11-14-11-9-11-9-9-9-9-9-9-10----||
D||-11-9-11-9-11-14-11-9-11-9-9-9-9-9-9-10----||
A||-------------------------------------------||
E||-------------------------------------------||

=================================
Intro 2(~Main Riff): Play x1 time
=================================
E||-------------------|------------------------||
B||-------------------|------------------------||
G||-----------2-------|-----------5-4-2/\------||
D||-2-4-4-4-2-2-4-2-4-|-2-4-4-4-2-5-4-2/\------||
A||-2-4-4-4-2---4-2-4-|-2-4-4-4-2--------------||
E||-------------------|------------------------||

E||-------------------|--------------||
B||-------------------|--------------||
G||-----------2-------|---6-4-2------||
D||-2-4-4-4-2-2-4-2-4-|-x-6-4-2-2----||
A||-2-4-4-4-2---4-2-4-|-x-------2----||
E||-------------------|--------------||

=================================
Main (Chorus) Riff: Play x2 twice
=================================
E||-------------------|-------------------||
B||-------------------|-------------------||
G||-------------------|-------------------||
D||-----------2-------|-----------5-4-2---||
A||-2-4-4-4-2-0-4-2-4-|-2-4-4-4-2-3-2-0---||
E||-0-2-2-2-0---2-0-2-|-0-2-2-2-0---------||

E||-------------------|-------------||
B||-------------------|-------------||
G||-------------------|-------------||
D||-----------2-------|---6-4-2-----||
A||-2-4-4-4-2-0-4-2-4-|-x-4-2-0-2---||
E||-0-2-2-2-0---2-0-2-|-x-------0---||

=========================
Verse Riff: Play x8 times
=========================
E||-----------------------||
B||-----------------------||
G||-----------------------||
D||-4---------------2-3---||
A||-----------2-3-4-------||
E||---2-0-2-5-------------||

E||-----------------------||
B||-----------------------||
G||-----------------------||
D||-4---------------------||
A||-----------2-3-2-------||
E||---2-0-2-5-------5-2---||

(CHORUS)

(VERSE)

On x8th time, play:
E||---------------------||
B||---------------------||
G||-----------2---------||
D||-4---------2---------||
A||-----------0-----9\--||
E||---2-0-2-5---2-2-----||

======
Bridge
======
E||-----------------------------------||
B||-----------------------------------||
G||-------------------------------2---||
D||-------------------------------2---||
A||-4-4-4--2-2--4-4-4--2-2--4-4-4-0---||
E||-2-2-2--0-0--2-2-2--0-0--2-2-2-----||

E||---------------------------------------||
B||---------------------------------------||
G||---------------------------------------||
D||-------------------------------5-4-----||
A||-4-4-4--2-2--4-4-4--2-2--4-4-4-3-2-3---||
E||-2-2-2--0-0--2-2-2--0-0--2-2-2-----1---||

For Ending, repeat the verse riff over.




Ваше мнение



Капча