tabbed by Felipe Реса Karvonen
email:[email protected]

Bass tab.

Producer - live version (?) - Rage against the machine.



G---------------------------------------------------------
D---------------------------------------------------------
A-------------------5-7-5-------------------------------
D--2--5---2-2-2----------------------------------------


G----------------------------------------------------------
D----------------------------------------------------------
A-------------------5-7-5--------------------------------
D--2--5---2-2-2-----------------------------------------


this is hard one.. to pick up from the song..
G----------------------------------------------------------
D----------------------------------------------------------
A-2/4----------well-the-begging-is-here!-SUGGESTIONES!!!!!
D------2------0--------------------------------------------

chorus.
G----------------------------------------------------------
D----------------------------------------------------------
A----------------------------------------------------------
D--4-4-7-4-7-4-2-4-4-7-4-7------------------------




Ваше мнение



Капча