Rage Against The Machine, No Shelter
Andreas Eriksson, [email protected]

Intro/Chorus

E|--------------------------------------|
B|--------------------------------------| w/Delay
G|-----------------------x-x-x-x-x-x-x--|
D|-----------------------x-x-x-x-x-x-x--|
A|--10/12--15-15-10/10---x-x-x-x-x-x-x--|
D|--10/12--15-15-10/12---x-x-x-x-x-x-x--|

Verse

E|--------------|
B|--------------| Wah Wah
G|--------------|
D|--------------|
A|--33-5-3h5p3--|
D|--------------|

Bridge

E|--~16-~16-~16-~16-~16-~16-~16-^~~16--|
B|-------------------------------------| ~=Vibrato
G|-------------------------------------| ^=Bend
D|-------------------------------------|
A|-------------------------------------|
D|-------------------------------------|

Outro

E|-------------------------------|
B|-------------------------------|
G|-------------------------------|
D|-------------3-----------------|
A|--5--3----------5--3--5--------|
D|-------3-0---------------3--5--|

And it ends with:

E|-----|
B|-----|
G|-----|
D|--0--|
A|--0--|
D|--0--|

Now, thats the sound




Ваше мнение



Капча