New Millenium Homes
By Rage Against The Machine

This song kicks ass

Intro

Standard Tuneing
(Eadgbe)

e|--------------------------|----------------------|
b|--------------------------|----------------------|
g|--------------------------|----------------------|
d|--------------------------|--5---5--------------|
a|-------5------------5h7---|-----7----------------|
E|----0-----5--0--0--------|----------0--3--5--0--|

Play this a few
times then play ---->

The verse is just an open low E with a phazer in a pattern
that i you can figure out your self

The pre-chorus is like this

e|---------------------0--|
b|---------------------3--|
g|------------------------|
d|------------------------|
a|--------7-7-7-----------|
E|--0-0-0-------0-0-0-----|

Play this a few times then fall into the main intro riff
for the chorus

The solo is so crazy its accualy just single notes on one
string and one fret but its two guitars one with a wammy
pedal and the other one with a wah wah if you want to play
it i suggest you pick up the battle of LA sheet music book


Ваше мнение



Капча