New Millennium Homes
Rage Against The Machine
The Battle Of Los Angeles
Standard E
By: Anthony

Intro
E---------------------------------|--------------------------------|
B---------------------------------|--------------------------------|
G---------------------------------|--------------------------------|
D---------------------------------|--------------------------------|
A---5---------5h7-----------------|------10/7-12--2-5h7--2---------|
E-0---5-0-0-0---------------------|----0----------0------0---------|

Verse:(I'm not sure try both of em) half wah
E---------------------------------|--------------------------------|
B---------------------------------|--------------------------------|
G---------------------------------|--------------------------------|
D---------------------------------|--------------------------------|
A-2-2-22-22-----------------------|--7-7-77-77---------------------|
E-0-0-00-00-----------------------|--0-0-00-00---------------------|

Chorus:(the I press it to CD bit)

E----------------0-----------------|--------------------------------|
B----------------3-----------------|--------------------------------|
G----------------------------------|--------------------------------|
D-------999------------------------|--------------------------------|
A--222--777-222--------------------|--------------------------------|
E--000------000--------------------|--------------------------------|

Solo: something like bend a note, and hammer on other
frets on the string




Ваше мнение



Капча